Song name
# A B C D E F G H I J K L M N O P Q R S T U V W X Y Z

Funk Face - Zoo York City tab

-------------------------------------------------------------------------------
			    ZOO YORK CITY - Funk Face
-------------------------------------------------------------------------------
Tabbed by: Eduardo de Barros Ferreira(edubf22)
Email: edubf22@yahoo.com.br

Well, this is my first tab, i couldn't figure the solo by my own, so if you know 
please tell me.
BAND SITE: http://www.funkfacenyc.com/

Tuning: Standard (EADGBe)

INTRO - Just begin doing a pick slide after the drums start the music, and then play the 
main riff:

e|-----------------------------------------------|
B|-----------------------------------------------|
G|--6-6---9-8-9-6-6---9-8-9-4-4--4-4------4-4----|
D|--6-6---9-8-9-6-6---9-8-9-4-4--4-4--6-6-4-4----|    X2
A|--4-4---7-6-7-4-4---7-6-7-2-2--2-2--6-6-2-2----|
E|------------------------------------4-4--------|

Then, play the same thing palm muted 4 TIMES, and then start this second part:

e|-----------------------------------------------|
B|-----------------------------------------------|
G|--------------------4-4---6-6-6-6-6-6-6-6------|
D|--2-2---4-4---6-6---4-4---6-6-6-6-6-6-6-6------|    X3
A|--2-2---4-4---6-6---2-2---4-4-4-4-4-4-4-4------|
E|--0-0---2-2---4-4------------------------------|

Then play that again until the solo, play the second part five times, and the finish with:

e|---------------------------|
B|---------------------------|
G|--6666~-----6-6---9-8-9----|
D|--6666~-----6-6---9-8-9----|
A|--4444~-----4-4---7-6-7----|
E|---------------------------|

Also, you can change the number of times you play each note... I just put a general 
to give the idea of how the song is played.
That's all, thanks for clicking!
VAI CORINTHIANS
Tap to rate this tab
 
# A B C D E F G H I J K L M N O P Q R S T U V W X Y Z