Song name
# A B C D E F G H I J K L M N O P Q R S T U V W X Y Z

Funkadelic - Friday Night August 14th tab

Friday Night, August 14th
By Funkadelic
from Free Your Mind...
Tabbed by Csteward


solo in E minor pentatonic scale


Main Rythym figure:

      E7#9                             G   A   G
-----------x------------x------------x-3-x-5-x-3-----------------|
------8-8--x-------8-8--x------8-8---x-3-x-5-x-3-----------------|
------7-7--x-------7-7--x------7-7---x-4-x-6-x-4-----------------|
------6-6--x-------6-6--x------6-6---x-5-x-7-x-5-----------------|
------7-7--x-------7-7--x------7-7---x-5-x-7-x-5-----------------|
--0-0------x---0-0------x--0-0-------x-3-x-5-x-3-----------------|

chorus:

 G    Bb   D
-3----6----10--10-10-10-----------------------|
-3----6----10--10-10-10-----------------------|
-4----7----11--11-11-11-----------------------|
-5----8----12--12-12-12-----------------------|
-5----8----12--12-12-12-----------------------|
-3----6----10--10-10-10-----------------------|

Eddie Hazel sometimes plays this riff instead of the second set of E7#9 chords. It goes like this

------------------------------x-3-x-5-x-3-----------------|
-----8-8-----------------8-8--x-3-x-5-x-3-----------------|
-----7-7-----------------7-7--x-4-x-6-x-4-----------------|
-----6-6-------5-7-------6-6--x-5-x-7-x-5-----------------|
-----7-7--5-5h7-7--7-----7-7--x-5-x-7-x-5-----------------|
-0-0-----------------0-0------x-3-x-5-x-3-----------------|

the riff could also be: you decide which one sounds more correct to you

--------------------------------|
--------------------------------|
--------------------------------|
-------5-7----------------------|
--7-5h7-7-7---------------------|
--------------------------------|




x= mute
h= hammer on

Tap to rate this tab
# A B C D E F G H I J K L M N O P Q R S T U V W X Y Z