Song name
# A B C D E F G H I J K L M N O P Q R S T U V W X Y Z

Funkadelic - Who Says A Funk Band Cant Play Rock tab

Artist: Funkadelic
Song: Who Say a Funk Band Canīt Play Rock?
Album: One Nation Under a Groove

Riff:
Guitar 1 (with Fuzz):

|--9-----------------------------------------------------------------|
|--9-9----------12---12-12-12---------------12---------12-12-12------|
|----9--------9-11---11b11b11b9-------11b11b11br9------11b11b11br9---|
|-----11----11-----------------11---------------------------------11-|
|--------------------------------------------------------------------|
|--------------------------------------------------------------------|


|-9---------------------------------------------------------------------------------------|
|-9-9----------12---12-12-12--------------------------------------------------------------|
|---9--------9-11---11b11b11b----9-10-11-9-11--11Br9---------9-10-11-9-11--11/13-9--------|
|----11----11-----------------11---------------------11----11----------------------11-11--|
|-----------------------------------------------------------------------------------------|
|-----------------------------------------------------------------------------------------|


|---------------------------------------------------------------------------|
|---------12~------12~------------------------------------------------------|
|----9/11------9/11---------------------------------------------------------|
|--11-----------------------------------------------------------------------|
|---------------------------------------------------------------------------|
|---------------------------------------------------------------------------|


Guitar 2 (with Fuzz):

|---------------------------------------------------------|
|--9------------------------------------------------------|
|---9----9-11b11b11br------11b11b11br9-----11b11b11br-----|
|-----11-------------11------------------------------11---|
|---------------------------------------------------------|
|---------------------------------------------------------|


|-------------------------------------------------------------------------------------------|
|--9----------------------------------------------------------------------------------------|
|---9---9-11b11b11br----9-10-11-9-11--11Br9-------------------------------------------------|
|----11---------------11-------------------11-11-----------------------------------9--------|
|----------------------------------------------------7-8-9-7--9/11-7-----------7-8---7------|
|---------------------------------------------------9----------------9-9------9--------9-9--|



|------------------------------------------------------|
|------------------------------------------------------|
|------------------------------------------------------|
|-------------------------------------------------4h6--|x2
|---6-7----------------------------------------4h6-----|
|--9---7-5~~~--1~~~~------9~~~-5~~~~7~~~~4~~4h7--------|


When I have the guitar solos 100% correct, I will add them to the tab.

David-Argentina
Tap to rate this tab
# A B C D E F G H I J K L M N O P Q R S T U V W X Y Z