Song name
# A B C D E F G H I J K L M N O P Q R S T U V W X Y Z

Funkadelic - Red Hot Mama tab

Tabbed by ZososoZ

Standard Tuning.
Here's how I play the main parts for this great song.
You can play the main riff with either full power chords
or with single note variations. Play with it and see how 
you like it.

-|----------------------------------------------------------------------------
-|----------------------------------------------------------------------------
-|----------------------------------------------------------------------------
-|----------------------------------------------------------------------------
-|-3/5-555-555-555-3/5-555-555-555-3/5-555-555-555----------------------------
-|----------------------------------------------------------------------------
   Here's the main riff.                                                      

-|----------------------------------------------------------------------------
-|----------------------------------------------------------------------------
-|-5/7-------------------------7\5----------5\--------2-----------------------
-|-5/7-------------------------7\5----------5\--------2-----------------------
-|-3/5-------------------------5\3----------3\--------0-----------------------
-|----------------------------------------------------------------------------
   "Ride on red hot mama, girl  you sure look good to me."                    

-|----------------------------------------------------------------------------
-|-----6-----------6-8-6-------6-----------6-8-6------------------------------
-|-7-5---7-5-7-7-5-------7-7-5---7-5-7-7-5-------7----------------------------
-|----------------------------------------------------------------------------
-|----------------------------------------------------------------------------
-|----------------------------------------------------------------------------
   Here's that little fill.
Tap to rate this tab
# A B C D E F G H I J K L M N O P Q R S T U V W X Y Z