Song name
# A B C D E F G H I J K L M N O P Q R S T U V W X Y Z

Fureys - First Leaves Of Autumn tab

Fureys & Davey Arthur - First Leaves of Autumn
Standard Tuning - Capo 2

INTRO: (D) 
e|--(-2-----0--------)-----------2------3---2--------------------------------|
B|--(---3-----3---3--)-------------3--------3--------------------------------|
G|--(-----2-----2----)---------------2------2--------------------------------|
D|--(0---------------)---X2-----0-----------0--------------------------------|
A|---------------------------------------------------------------------------|
E|---------------------------------------------------------------------------|

As the daylight turns to starlight 
        G               A
and the season turns to change,
  D
I get the same old answers 
        G                 A
but the question still remains.
                            G
We shared a brief but magic song,
       A               G
By the first leaves of autumn, 
         D
you were gone,

Chorus
D             G        A          D
Not until the rain has touched my face,
              G            A         D
Not until the first leaves fell from space,
               G            Bm
Not until that moment did I see,
 Bm                       G     A  D
I never realised what you meant to me,

(G)                       (A)                  (D)
e|-----------------------------------------------------2----------|
B|----------------------------------2--------------3-----3----3---|
G|------------- 0-----------------2--------------2---2------2-----|
D|--------- 0------------------2---------------0------------------|
A|-------2------------------0-------------------------------------|
E|-----3----------------------------------------------------------|
 (Bm)
e|---------------------------------------------------------------------------|
B|------------2--------------------------------------------------------------|
G|----------4----------------------------------------------------------------|
D|--------4------------------------------------------------------------------|
A|------2--------------------------------------------------------------------|
E|---------------------------------------------------------------------------|
Tap to rate this tab
# A B C D E F G H I J K L M N O P Q R S T U V W X Y Z