Guitaretab - guitar tabs
Song name
# A B C D E F G H I J K L M N O P Q R S T U V W X Y Z

Furland - Tour De France tab

 
http://www.myspace.com/furlandmx   


----------------|
TOUR DE FRANCE       
----------------|

TABBED BY: radamanties

ESCUCHEN LA CANCION PARA LOS TIEMPOS
[ Tab from: http://www.guitaretab.com/f/furland/87006.html ]
e|--4--------4--------4----------4---------------------------------|
b|-----5--------5--7----------7-----------------------------------|
g|--------4-------------6-----------6------------------------------|
d|-----------------------------------------------------------------|
a|-----------------------------------------------------------------|
E|-----------------------------------------------------------------|


e|--5--------------------7--5--------4-----------------------------|
b|------7----------------------7-8-----5--------------------------|
g|---------6--4--6-----4------------------4------------------------|
d|-----------------------------------------------------------------|
a|-----------------------------------------------------------------|
E|-----------------------------------------------------------------|