Song name
# A B C D E F G H I J K L M N O P Q R S T U V W X Y Z

Furthest Drive Home - Diamond Watch tab

-------------------------------------------------------------------------------
			     Diamond Watch - Furthest Drive Home
-------------------------------------------------------------------------------
Tabbed by:Alex
Email:alex_g_12@hotmail.com

Tuning: Standard

Intro & Chorus Part I

e|---------------------------------------------------------------------------------|
B|---------------------------------------------------------------------------------|
G|---------------------------------------------------------------------------------|
D|-2---4---6---8-------------------------------------------------------------------|
A|-2---4---6---8-------------------------------------------------------------------|
E|-0---2---4---6-------------------------------------------------------------------|

e|---------------------------------------------------------------------------------|
B|------------------------------------9--------------------------------------------|
G|------------------------------------10-------------------------------------------|
D|--2----4----6-----------------------8--------------------------------------------|
A|--2----4----6--------------------------------------------------------------------|
E|--0----2----4--------------------------------------------------------------------|


| /  slide up
| \  slide down
| h  hammer-on
| p  pull-off
| ~  vibrato
| +  harmonic
| x  Mute note
===============================================================================
Tap to rate this tab
# A B C D E F G H I J K L M N O P Q R S T U V W X Y Z