Song name
# A B C D E F G H I J K L M N O P Q R S T U V W X Y Z

Furthest Drive Home - Directors Cut tab

-------------------------------------------------------------------------------
			                FURTHEST DRIVE HOME - Director's Cut
-------------------------------------------------------------------------------

Tuning: Drop D
Okay so the only reason I tabbed this song is because no one else did it, and this most 
will be really bad

Sorry it's only the intro, the rest is coming

e|---------------------------------------------------------------------------------|
B|---------------------------------------------------------------------------------|
G|--8-/10\-8--10-10----8-/10\-8--10-10--8-----8-8-8-8-8-6-6-6----------------------|
D|--X--X---X--X--X-----X--X--X---X--X--X-----X-X-X-X-X-X-X-X---3-------------------|
A|--6-/8-\-6--8--8-----6-/8-\-6---8--8--6-----6-6-6-6-6-4-4-4---3--(x16)-----------|
D|-------------------------------------------------------------3-------------------|

e|------------------------------------------------------------------------------------|
B|------------------------------------------------------------------------------------|
G|--8-/10\-8--10-10----8-/10\-8--10-10--8-----8-8-8-8-8-6-6-6-------------------------|
D|--X--X---X--X--X-----X--X--X---X--X--X-----X-X-X-X-X-X-X-X---3-3-3-----3------------|
A|--6-/8-\-6--8--8-----6-/8-\-6---8--8--6-----6-6-6-6-6-4-4-4---3-3-3--6--3-4--0------|
D|-------------------------------------------------------------3-3--3----3-----0------|
Tap to rate this tab
# A B C D E F G H I J K L M N O P Q R S T U V W X Y Z