Song name
# A B C D E F G H I J K L M N O P Q R S T U V W X Y Z

Furthest Drive Home - I Pray Cruel tab

-------------------------------------------------------------------------------
			    i pray cruel - furthest drive home
-------------------------------------------------------------------------------
Tabbed by: da daddy
Email:dadaddy@hotmail.com

Tuning: half step down

Singers guitar

e|---------------------------------------------------------|
B|---------------------------------------------------------|
G|--------------------------------------------------0------|
D|----------------------------------------------5/7---4-0--|
A|---------------------------------------------------------|
D|2-2-2-2-2-2-2-2-2-2-2-2-2-2-2-2-2-2-2-2-2-2-2------------|
sharp stabs, let it ring like a bell.... end
e|7----7-----8------8------3-----2-----7------------------------------------------------|
B|8----8-----10-----10-----5-----4-----8------------------------------------------------|
G|9----9-----9------9------5-----4-----7------------------------------------------------|
D|--------------------------------------------------------------------------------------|
A|--------------------------------------------------------------------------------------|
D|--------------------------------------------------------------------------------------|

e|-----7------------7-------------8--------------8-----|
B|--9----9-------9----9-------10----10-------10----10--|
G|9------------9------------9--------------9-----------|
D|-----------------------------------------------------|
A|-----------------------------------------------------|
D|-----------------------------------------------------|
     let ring like a bell....end
e|-0-----2-----7---7--7-7---\---------|
B|-1-----4-----8---8--8-8---\---------|
G|-2-----4-----9---9--9-9---\---------|    x2
D|------------------------------------|
A|------------------------------------|
D|------------------------------------|

e|---------------------------------------------------------------------------|
B|---------------------------------------------------------------------------|
G|---------------------------------------------------------------------------|
D|---------------------------------------------------------------------------|
A|---------------------------------------------------------------------------|
D|2-2-2-2-2-2-2-2-2-2-2-2-2-2-2-2-2-2-2-2-2-2-2-2-2-2-2-2-2-2-2-2-2-2-2-2-2--|
                                                                                         
                                                                                     *
e|---------------------------------------------------------------------------------------------|
B|---------------------------------------------------------------------------------------------|
G|---------------------------------------------------------------------------------------------|
D|---------------------------------------------------------------------------------------------|
A|2-2-2-2-2-2-2-2-2-2-2-2-2-2-2-2-1-1-1-0-0-0-0-0-0-0-0-0-0-0-0-0-0-1-1-1-2-2-2-2-2-2-2-2-2-2--|
D|---------------------------------------------------------------------------------------------|

e|---------------------------------------------------------------------------|
B|---------------------------------------------------------------------------|
G|---------------------------------------------------------------------------|
D|---------------------------------------------------------------------------|
A|---------------------------------------------------------------------------|
E|---------------------------------------------------------------------------|

e|--------------------my dick is bleeding--|
B|-----------------------------------------|
G|-----------------------------------------|
D|-----------------------------------------|
A|-----------------------------------------|
E|-----------------------------------------|


| /  slide up
| \  slide down
| h  hammer-on
| p  pull-off
| ~  vibrato
| +  harmonic
| x  Mute note
===============================================================================
Tap to rate this tab
 
# A B C D E F G H I J K L M N O P Q R S T U V W X Y Z