Song name
# A B C D E F G H I J K L M N O P Q R S T U V W X Y Z

Fury In The Slaughterhouse - Seconds To Fall tab

Title: Seconds to fall
Artist: Fury in the Slaughterhouse
Author: Frederic Meyer

Not 100% sure if this is right... Please email me if you have a better version!

frederic.r.meyer@gmail.com

E|---------------------|---------------------|---------------------|---------------------|
B|---------------------|---------------------|---------------------|-0-------------------|
G|------0----0---------|-----------0---------|-----------0---------|-----------0---------|
D|-2--------------2----|-0----4---------4----|------2---------2----|------2---------2----|
A|---------------------|---------------------|-3-------------------|---------------------|
E|---------------------|---------------------|---------------------|---------------------|


E|-----------------|---------------------|---------------------|------------------------|
B|-----------0-----|---------------------|-----------3---------|------------------------|
G|-----------0-----|---------------------|------0---------0----|-0---2---0--------------|
D|-----------0-----|----------------0----|---------------------|--------------0----2----|
A|------2----------|------0----2---------|---------------------|------------------------|
E|-3---------------|-3-------------------|---------------------|------------------------|
Tap to rate this tab
# A B C D E F G H I J K L M N O P Q R S T U V W X Y Z