Song name
# A B C D E F G H I J K L M N O P Q R S T U V W X Y Z

Futons - Monkey & The Bear tab

#


From SlaveAcid9@aol.com Mon May 12 12:53:37 1997
Date: Sat, 22 Mar 1997 09:34:19 -0500 (EST)
From: SlaveAcid9@aol.com
To: guitar@olga.net
Subject: Here is one that many mignt like

Song: MONKEY AND THE BEAR
BY THE FUTONS!!!!!!!!!!!!!!!!!!!!!!!!!!!!!!
Album name: Fucktose

Guitar Tab: The Guitarist's name is Kyle
Normal Tuning
E|---------------------------------------------------------------
B|---------------------------------------------------------------
G|------------------6-6-6-5-5-5-----------------------------Verse
D|-3-3-3-3-3-3--6-6-6-5-5-5-----------------------------
A|-3-3-3-3-3-3--4-4-4-3-3-3----------------------------- 
E|-1-1-1-1-1-1----------------------------------------------
|-------------------------------------|P.M.


E|---------------------------------------------------------------
B|---------------------------------------------------------------
G|---------------------------------------------------------------Chorus
D|-5-5-5-5-5-7-7-7-7-7-3-3-3-3-3-3-------------------
A|-5-5-5-5-5-7-7-7-7-7-3-3-3-3-3-3-------------------
E|-3-3-3-3-3-5-5-5-5-5-1-1-1-1-1-1-------------------

E|---------------------------------------------------------------
B|-7^9--------7^9---------------------------------------------
G|---------------------------------------------------------------
D|---------------------------------------------------------------Go's into
Solo
A|--------------------------------------------------------------- 
E|---------6^-----------6^----5^5^5^43210---------------

E|---------------------------------------------------------------
B|---------------------------------------------------------------
G|---------------------------------------------------------------
D|--1/99\1/99\1/99\1/99\---------------------------------  Solo/Outro
A|--1/99\1/99\1/99\1/99\---------------------------------
E|--1/99\1/99\1/99\1/99\---------------------------------
Tap to rate this tab
# A B C D E F G H I J K L M N O P Q R S T U V W X Y Z