Song name
# A B C D E F G H I J K L M N O P Q R S T U V W X Y Z

Future Idiots - Hey Soul Sister tab

Hey, Soul Sister cover by Future Idiots (originally by Train)

I tabbed all of this myself. If there are any corrections or suggestions needed, please 
e-mail me at cobrien543@gmail.com.

Key
. Palm Mute
~ Hold Note

Intro/Verse 1 - part I
E|----------------------------------------------------------|
B|----------------------------------------------------------|
G|----------------------------------------------------------|
D|-8~--8-8-8-8-8-8-8-8-8-8-8-8--4~--4-4-4-4-4-4-4-4-4-4-4-4-| x6
A|-8~--8-8-8-8-8-8-8-8-8-8-8-8--4~--4-4-4-4-4-4-4-4-4-4-4-4-|
E|-6~--6-6-6-6-6-6-6-6-6-6-6-6--2~--2-2-2-2-2-2-2-2-2-2-2-2-|
       . . . . . . . . . . . .     . . . . . . . . . . . .
Riff
E|----------------------------------------------------------|
B|----------------------------------------------------------|
G|----------------------------------------------------------|
D|-8-8-8-8-8-8-8-8-8-8-8-8-8-8--4-4-4-4-4-4-4-4-4-4-4-4-4-4-| x2
A|-8-8-8-8-8-8-8-8-8-8-8-8-8-8--4-4-4-4-4-4-4-4-4-4-4-4-4-4-|
E|-6-6-6-6-6-6-6-6-6-6-6-6-6-6--2-2-2-2-2-2-2-2-2-2-2-2-2-2-|

Verse 1 - part II
E|----------------------------------------------------------|
B|----------------------------------------------------------|
G|----------------------------------------------------------|
D|-8~--8-8-8-8-8-8-8-8-8-8-8-8--4~--4-4-4-4-4-4-4-4-4-4-4-4-| x4
A|-8~--8-8-8-8-8-8-8-8-8-8-8-8--4~--4-4-4-4-4-4-4-4-4-4-4-4-|
E|-6~--6-6-6-6-6-6-6-6-6-6-6-6--2~--2-2-2-2-2-2-2-2-2-2-2-2-|
       . . . . . . . . . . .       . . . . . . . . . . .

(Notice for this part that the last chord of the riff is not palm muted, unlike the intro)

Chorus
E|--------------------------------------------|
B|--------------------------------------------|
G|------------------6-6-6-6-6-6---------------|
D|-8-8-8-8-8-8-8-8--6-6-6-6-6-6--8-8-8--6-6-6-|
A|-8-8-8-8-8-8-8-8--4-4-4-4-4-4--8-8-8--6-6-6-|
E|-6-6-6-6-6-6-6-6---------------6-6-6--4-4-4-|

E|------------------------------------|
B|------------------------------------|
G|------------------------------------|
D|-4-4-4-4-4-4-4-4--6-6-6-6--4-4--6-6-|
A|-4-4-4-4-4-4-4-4--6-6-6-6--4-4--6-6-|
E|-2-2-2-2-2-2-2-2--4-4-4-4--2-2--4-4-|

E|--------------------------------------------|
B|--------------------------------------------|
G|------------------6-6-6-6-6-6---------------|
D|-8-8-8-8-8-8-8-8--6-6-6-6-6-6--8-8-8--6-6-6-|
A|-8-8-8-8-8-8-8-8--4-4-4-4-4-4--8-8-8--6-6-6-|
E|-6-6-6-6-6-6-6-6---------------6-6-6--4-4-4-|

E|------------------------------|
B|------------------------------|
G|------------------------------|
D|-4-4-4-4-4-4-4-4--6-6-6-6-6~~-|
A|-4-4-4-4-4-4-4-4--6-6-6-6-6~~-|
E|-2-2-2-2-2-2-2-2--4-4-4-4-4~~-|

Riff
E|----------------------------------------------------------|
B|----------------------------------------------------------|
G|----------------------------------------------------------|
D|-8-8-8-8-8-8-8-8-8-8-8-8-8-8--4-4-4-4-4-4-4-4-4-4-4-4-4-4-| x2
A|-8-8-8-8-8-8-8-8-8-8-8-8-8-8--4-4-4-4-4-4-4-4-4-4-4-4-4-4-|
E|-6-6-6-6-6-6-6-6-6-6-6-6-6-6--2-2-2-2-2-2-2-2-2-2-2-2-2-2-|

Verse 2 - part I (no guitar)

Verse 2 - part II
E|----------------------------------------------------------|
B|----------------------------------------------------------|
G|----------------------------------------------------------|
D|-8~--8-8-8-8-8-8-8-8-8-8-8-8--4~--4-4-4-4-4-4-4-4-4-4-4-4-| x4
A|-8~--8-8-8-8-8-8-8-8-8-8-8-8--4~--4-4-4-4-4-4-4-4-4-4-4-4-|
E|-6~--6-6-6-6-6-6-6-6-6-6-6-6--2~--2-2-2-2-2-2-2-2-2-2-2-2-|
       . . . . . . . . . . .       . . . . . . . . . . .
Chorus
E|--------------------------------------------|
B|--------------------------------------------|
G|------------------6-6-6-6-6-6---------------|
D|-8-8-8-8-8-8-8-8--6-6-6-6-6-6--8-8-8--6-6-6-|
A|-8-8-8-8-8-8-8-8--4-4-4-4-4-4--8-8-8--6-6-6-|
E|-6-6-6-6-6-6-6-6---------------6-6-6--4-4-4-|

E|------------------------------------|
B|------------------------------------|
G|------------------------------------|
D|-4-4-4-4-4-4-4-4--6-6-6-6--4-4--6-6-|
A|-4-4-4-4-4-4-4-4--6-6-6-6--4-4--6-6-|
E|-2-2-2-2-2-2-2-2--4-4-4-4--2-2--4-4-|

E|--------------------------------------------|
B|--------------------------------------------|
G|------------------6-6-6-6-6-6---------------|
D|-8-8-8-8-8-8-8-8--6-6-6-6-6-6--8-8-8--6-6-6-|
A|-8-8-8-8-8-8-8-8--4-4-4-4-4-4--8-8-8--6-6-6-|
E|-6-6-6-6-6-6-6-6---------------6-6-6--4-4-4-|

E|------------------------------|
B|------------------------------|
G|------------------------------|
D|-4-4-4-4-4-4-4-4--6-6-6-6-6~~-|
A|-4-4-4-4-4-4-4-4--6-6-6-6-6~~-|
E|-2-2-2-2-2-2-2-2--4-4-4-4-4~~-|

Bride/Interlude

E|---------------------------------------------------|
B|---------------------------------------------------|
G|---------------------------------------------------|
D|-8-8-8-8-8-8-8-8--6-6-6-6-6-6-6-6--8-8-8-8-8-8-8-8-|
A|-8-8-8-8-8-8-8-8--6-6-6-6-6-6-6-6--8-8-8-8-8-8-8-8-|
E|-6-6-6-6-6-6-6-6--4-4-4-4-4-4-4-4--6-6-6-6-6-6-6-6-|

E|----------------------------------------------------|
B|----------------------------------------------------|
G|------------------6-6-6-6-6-6-6-6-------------------|
D|-8-8-8-8-8-8-8-8--6-6-6-6-6-6-6-6--6-6-6-6--7-7-7-7-|
A|-8-8-8-8-8-8-8-8--4-4-4-4-4-4-4-4--6-6-6-6--7-7-7-7-|
E|-6-6-6-6-6-6-6-6-------------------4-4-4-4--5-5-5-5-|

E|-----------------------------------|
B|-----------------------------------|
G|-----------------------------------|
D|-8-8-8-8--6-6-6-6--4-4-4-4-4-4-4-4-|
A|-8-8-8-8--6-6-6-6--4-4-4-4-4-4-4-4-|
E|-6-6-6-6--4-4-4-4--2-2-2-2-2-2-2-2-|

Chorus
E|----------------------------------------|
B|----------------------------------------|
G|----------------------------------------|
D|------------------6-6-------------------|
A|-8-8--------------4-4----------8-8--6-6-|
E|-6-6---------------------------6-6--4-4-|
   . .              . .          . .  . .

E|----------------------------------------|
B|----------------------------------------|
G|----------------------------------------|
D|----------------------------------------|
A|-4-4------------6-6----4-4--6-6---------|
E|-2-2------------4-4----2-2--4-4---------|
   . .            . .    . .  . .

E|--------------------------------------------|
B|--------------------------------------------|
G|------------------6-6-6-6-6-6---------------|
D|-8-8-8-8-8-8-8-8--6-6-6-6-6-6--8-8-8--6-6-6-|
A|-8-8-8-8-8-8-8-8--4-4-4-4-4-4--8-8-8--6-6-6-|
E|-6-6-6-6-6-6-6-6---------------6-6-6--4-4-4-|

E|------------------------------------|
B|------------------------------------|
G|------------------------------------|
D|-4-4-4-4-4-4-4-4--6-6-6-6--4-4--6-6-|
A|-4-4-4-4-4-4-4-4--6-6-6-6--4-4--6-6-|
E|-2-2-2-2-2-2-2-2--4-4-4-4--2-2--4-4-|

E|--------------------------------------------|
B|--------------------------------------------|
G|------------------6-6-6-6-6-6---------------|
D|-8-8-8-8-8-8-8-8--6-6-6-6-6-6--8-8-6--6-6-6-|
A|-8-8-8-8-8-8-8-8--4-4-4-4-4-4--8-8-6--6-6-6-|
E|-6-6-6-6-6-6-6-6---------------6-6-6--4-4-4-|

E|------------------------------|
B|------------------------------|
G|------------------------------|
D|-4-4-4-4-4-4-4-4--6-6-6-6-6~~-|
A|-4-4-4-4-4-4-4-4--6-6-6-6-6~~-|
E|-2-2-2-2-2-2-2-2--4-4-4-4-4~~-|

Outro
E|----------------------------------------------------------|
B|----------------------------------------------------------|
G|----------------------------------------------------------|
D|-8-8-8-8-8-8-8-8-8-8-8-8-8-8--4-4-4-4-4-4-4-4-4-4-4-4-4-4-| x4
A|-8-8-8-8-8-8-8-8-8-8-8-8-8-8--4-4-4-4-4-4-4-4-4-4-4-4-4-4-|
E|-6-6-6-6-6-6-6-6-6-6-6-6-6-6--2-2-2-2-2-2-2-2-2-2-2-2-2-2-|

End on
E|------|
B|------|
G|------|
D|-8~~~-| x4
A|-8~~~-|
E|-6~~~-|

Future Idiots Official Website
http://www.futureidiots.com/
Tap to rate this tab
# A B C D E F G H I J K L M N O P Q R S T U V W X Y Z