Song name
# A B C D E F G H I J K L M N O P Q R S T U V W X Y Z

Future Leaders Of The World - Spotlight tab

----------------------------------------------------------------------------
			   Spotlight - Future Leaders of the World 
----------------------------------------------------------------------------
Tabbed by:Officially Dead
Email:

Tuning:Drop Db
 intro/chorus
|--------------------------------------------------------------------------|
|--------------------------------------------------------------------------|
|--------------------------------------------------------------------------|
|7---3---2---6-------------------------------------------------------------|
|7x8-3x4-2x4-6x8-7x4-5x4---------------------------------------------------|
|7---3---2---6---5---3-----------------------------------------------------|
 verse
|----0---------------0------0---0------------------------------------------|
|---0-0-----0---0---0-0------0---0-----------------------------------------|
|--2---2---2---2---4---4---2---1-------------------------------------------|
|-2-----2-2---2---6-----6-3---2--------------------------------------------|
|0---------------0---------------------------------------------------------|
|--------3---2-------------------------------------------------------------|
 2:15 not 100% on this part
|--------------------------------------------------------------------------|
|--------------------------------------------------------------------------|
|---14/13-----11/13--13-----14/12-10--10-----------------------------------|
|00--------00------------00---------------0-5------------------------------|
|00-12/11--00--9/11--11--00-12/10--8---8--0-5x3----------------------------|
|-----------------------------------------0-5------------------------------|
2:47
|3/5-5x4-5/8-8x4-0-7x2------------------------------------------------------|
|3/5-5x4-5/8-8x4-0-8x2-9-9---9x3--12----12----13-x3-------------------------|
|-----------------------7-7--7x3--14br--14br--15b-holdx3--------------------|
|---------------------------------------------------------------------------|
|---------------------------------------------------------------------------|
|---------------------------------------------------------------------------|




| /  slide up
| \  slide down
| h  hammer-on
| p  pull-off
| ~  vibrato
| +  harmonic
| x  Mute note
===============================================================================
this is my first tab, hope it is readable
Tap to rate this tab
 
# A B C D E F G H I J K L M N O P Q R S T U V W X Y Z