Song name
# A B C D E F G H I J K L M N O P Q R S T U V W X Y Z

Future Of Forestry - If You Find Her tab

Song: If You Find Her
Artist: Future of Forestry
Album: Twilight (2007)

Tabbed by: Samuel Park (spark325[at]gmail[dot]com)

The chord shapes for this song are easy. I put the chords at the 
bottom so you have a reference as you read the tab. I made a moderate
effort to get the fingerpicked notes correct, but basically if you 
form the chords at the bottom and pick any string, it will sound fine.
Obviously, listen to the song for the rhythm.

This is a beautiful song that isn't too hard to play with practice.


Capo 6 (tab numbers relative to capo)

 Intro
|-------2--------------------------------|
|-----3-----3---3---3---0---0---0--------|
|---4-----4---4---4---4---0---0---0-0----|
|-5-------------4-------2---0---------0--|
|-------------------------------3---2----|
|----------------------------------------|


|------------------------------------|
|------------------3---------------3-|
|-------0-----0--------0-------0-----|
|---2/4-----4---4----4---4---4---4---|
|---------5----------------5---------|
|-0----------------------------------|


|-------2--------------------------------------------------------------|
|-----3-----3---3----3------------0----------------3----------------3--|
|---4-----4---4----4---4-0---2------0-0-------0--------0-------0-------|
|-5-------------4----------2---0--------2---4---4----4---4---4---4-----|
|-------------------------------------3---5----------------5-----------|
|------------------------0---2----3------------------------------------|


 Verse
||----------------------------------------------------------------|
||o-------3-------3-------3-----3---------3-------3-------3-------|
||------0-------0-------0-----0---0-----0-------0-------0-----0---|
||----0-------0-------0-----0---------0-------0-------0-----0---0-|
||o---------0-------2---------------3-----------------------------|
||--3---------------------------------------2-------3-------------|


|--------------------------------------------------|
|--------------------------------------------------|
|-----0-------0-------0-------0-------0--------0---|
|---0---0---0---0---0---0---0---0---0---0----0---0-|
|-3-------2-------2-------2-------3--------2-------|
|--------------------------------------------------|


 [1]
|-----------------------------------|| Repeat and go to [2]
|-------3--------3-------3-------3-o||
|-----0--------0-------0-------0----||
|---0--------0-------0-------0------||
|-2--------2-------2-------2-------o||
|-----------------------------------||


 [2]
|---------------------------------|-----------------|------------------|
|-------------------------0-------|---------3-------|---------3--------|
|---------0-----------0-------0---|-----0-------0---|-----0-------0----|
|-----2-------2-----2---2---2---2-|---4---4---4---4-|---4---4---4---4--|
|---2---2---2---2-----------------|-5---------------|-5----------------|
|-0---------------0---------------|-----------------|------------------|


She won't falter easy, she'll be careful, she'll be coy
But still she paints her heart among the musings of a boy

At the break of morning, the day awaits her when she sleeps
Deep inside her dreams is all the beauty that she keeps


 Chorus
|---------------------------------|
|-----0-------0---0---0---0---0---|
|---0---0---0---0---0---0---0---0-|
|-5-------4-------2---0-----------|
|-------------------------3---2---|
|---------------------------------|


|-------------------------------------------|
|------------------3----------------3-------|
|-------0-----0--------0-------0--------0---|
|---2/4-----4---4----4---4---4---4----4---4-|
|---------5----------------5----------------|
|-0-----------------------------------------|


|--------------------------------------------------------------------|
|-----0-------0------------0----------------3----------------3-------|
|---0---0---0---0--0---2-----0-0--------0-------0--------0-------0---|
|-5-------4----------2---0-------2----4---4---4---4----4---4---4---4-|
|------------------------------3----5----------------5---------------|
|------------------0---2---3-----------------------------------------|


If you find her, tell her that I love her
If she hears you, ask her heart to come


 "Different" part
|--------------------------------------|
|-----------------1p0-----1p0----------|
|---------0h2p0-------2p0-----2p0------|
|-----2/4-------0-----------------2----|
|---2----------------------------------|
|-0------------------------------------|


 Guitar accompaniment during Rhodes solo
|-----------------------------------------------------------------------|
|-----------------------------------------------------------------------|
|-----0-------0--------0---------0--------0-------0--------0-------0----|
|---0---0---0---0----0---0-----0---0----0---0---0---0----0---0---0---0--|
|---------0--------2-------2/5--------3-------3--------2-------2--------|
|-3---------------------------------------------------------------------|


|-----------------------------------------------------------------------|
|-----------------------------------------------------------------------|
|-----0-------0--------0---------0--------0-------0--------0-------0----|
|---0---0---0---0----0---0-----0---0----0---0---0---0----0---0---0---0--|
|---------0--------2-------2/5--------3---------------------------------|
|-3-------------------------------------------2--------3-------3--------|

                                         4x        4x        8x
|------------------------------------|---------|---------|---------|
|------------------------------------|---------|---------|-0-------|
|-----0-------0--------0---------0---|-----0---|-----0---|-----0---|
|---0---0---0---0----0---0-----0---0-|---5---0-|---4---4-|---2---2-|
|---------0--------2-------2/5-------|-7-------|-5-------|-3-------|
|-3----------------------------------|---------|---------|---------|


 Chords (between chords are walking bass note riffs)

  Gmaj7 Gmaj7/F# Em    D/F#  G     C     D
|-2-----2--------0-----x-----3-----0-----0---|
|-3-----3--------0-----3-----0-----1-----3---|
|-4-----4--------0-----2-----0-----0-----0---|
|-5-----4--------2-----0-----0-----2-----4---|
|-x-----x--------2-----x-----x-----3-----5---|
|-x-----x--------0-----2-----3-----x-----x---|
Tap to rate this tab
# A B C D E F G H I J K L M N O P Q R S T U V W X Y Z