Song name
# A B C D E F G H I J K L M N O P Q R S T U V W X Y Z

Future Of Forestry - Closer To Me chords

Highlighted       Show chord diagrams
Future of Forestry  Closer to me
               A                        C#m         A      Dm               B
I wish I could feel all the strength of Your peace. Inside me building love endlessly
B              A                     C#m         A                    Dm    
I wish I could fall in a sea of Your light while the brillance around me
                                  C#m                      B
Watch it chase away night. closer to me. Oh, I want you to be even closer to me

Pre-chorus : 
  C#m             G#m
e-------------------4----4----4-------|
B-2-2--2-2--2-2-3---------------------|
G--4----4----4-4-2-1-1--1-1--1-1--2-2-|  2x
D-------------------4----4----4-------|
A-------------------4----4----4-------|
E-------------------4----4----4-------|

B              A                       C#m         A      Dm          B
I wish I could feel just the warmth of your breath around me as I lie on my bed
B              A                     C#m         A             Dm    
I wish I could taste your sweet ruby wine as you lift me to heaven 
                                    C#m                      B
to the place where we shine. Closer to me. Oh, I want you to be, closer to me

Pre-chorus : 
  C#m             G#m
e-------------------4----4----4-------|
B-2-2--2-2--2-2-3---------------------|
G--4----4----4-4-2-1-1--1-1--1-1--2-2-|  2x
D-------------------4----4----4-------|
A-------------------4----4----4-------|
E-------------------4----4----4-------|

Chorus :
        F#      C#m          E            C#m   B          F#      
For the day I wait cause my heart knows I found you and I'm still looking 
C#m        B          
for you 

SamyBoy!
Tap to rate this tab
 
# A B C D E F G H I J K L M N O P Q R S T U V W X Y Z