Song name
# A B C D E F G H I J K L M N O P Q R S T U V W X Y Z

Future Of Forestry - Closer To Me tab

Standard Tuning

[0:00]-[0:23]
|--------------------------------------------------------------------|
|--10-12-14-17-14-14---14-14---14-14----9-9----9-9----9-9----10-9----|
|---------------------------------------9-9----9-9----9-9----9--9-9--|
|--------------------------------------------------------------------|
|--0-----------------0-------0-------11-----11-----11----------------|
|--------------------------------------------------------------------|
|
|-----------------------14-14----------------------------------------------|
|-----15-15----15-15----15-15----15-------14-14---14-14----12-12----12-12--|
|-----14-14----14-14----------------14----14-14---14-14----13-13----13-13--|
|--------------------------------------------------------------------------|
|--------------------------------------12-------12------11-------11--------|
|--14-------14-------14-------14-------------------------------------------|

[0:23]-[0:53]
|--------------------------------------------------------------------|
|--10-12-14-17-14-14---14-14---14-14----9-9----9-9----9-9----10-9----|
|---------------------------------------9-9----9-9----9-9----9--9-9--|
|--------------------------------------------------------------------|
|--0-----------------0-------0-------11-----11-----11----------------|
|--------------------------------------------------------------------|
|
|-----------------------14-14-------------------------------14-14------------|
|-----15-15----15-15----15-15----15-------15-15----15-15----15-15----14------|
|-----14-14----14-14----------------14----14-14----14-14----------------14---|
|--------------------------------------12-------12-------12-------12---------|
|----------------------------------------------------------------------------|
|--14-------14-------14-------14---------------------------------------------|
|
|-----12-12----12-12----12-12--12--------------------------------------------|
|-----14-14----14-14----14-14-----14-------------------------12-12----12-12--|
|------------------------------------14----13-13----13-13----13-13----13-13--|
|------------------------------------------14-14----14-14--------------------|
|--12-------12-------12-----------------11-------11-------11-------11--------|
|----------------------------------------------------------------------------|
Tap to rate this tab
# A B C D E F G H I J K L M N O P Q R S T U V W X Y Z