Song name
# A B C D E F G H I J K L M N O P Q R S T U V W X Y Z

Future Of Forestry - Sanctitatis tab

Standard Tuning

Guitar 1
|--7-------7-------7-------7-------10------10------10------10-------|
|------8-------8-------8-------8-------8-------8-------8-------8----|
|----9---9---9---9---9---9---9---9---9---9---9---9---9---9---9---9--|
|-------------------------------------------------------------------|
|-------------------------------------------------------------------|
|-------------------------------------------------------------------|
|
|--10------10------10------10---------------------------------------|
|------8-------8-------8-------8---10--7---10--7---8---7---8---7----|
|----7---7---7---7---7---7---7---7---7---7---7---7---7---7---7---7--|
|-------------------------------------------------------------------|
|-------------------------------------------------------------------|
|-------------------------------------------------------------------|

Guitar 2
|--12-12-12-12-12-12-12-10----15-15-15-15-15-15-15~--------------------------|
|----------------------------------------------------12-12~--12-12-13-12-10--|
|----------------------------------------------------------------------------|
|----------------------------------------------------------------------------|
|----------------------------------------------------------------------------|
|----------------------------------------------------------------------------|
|
|-----------------------|
|--10-10-12-10-8-10-8~--|
|-----------------------|
|-----------------------|
|-----------------------|
|-----------------------|
Tap to rate this tab
 
# A B C D E F G H I J K L M N O P Q R S T U V W X Y Z