Song name
# A B C D E F G H I J K L M N O P Q R S T U V W X Y Z

Future Of Forestry - Closer To Me tab

If you would like to correct at all, please feel free.
__________________________________________________________________________

Meter: 6/8 time

Form:

Verse
Interlude x2
Verse 2
Bridge
Interlude
Bridge x2
Interlude x4

__________________________________________________________________________                    

[Verse]  (On Verse 2, repeat the first two measures of the verse at the end)

----------12-------|-----------------|-------------|---------------|
----12-14----14-14-|---14-14---14-14-|---9-9---9-9-|---9-9-10-9----|
-14----------14-14-|---14-14---14-14-|---9-9---9-9-|---9-9------11-|
-14----------------|-----------------|-------------|---------------|
-0-----------------|-0-------0-------|-------------|---------------|
-------------------|-----------------|-9-----9-----|-9-------------|


-------------------|----14-14----10-10-|-----------------|---------------|
----10-10----10-10-|----10-10----10-10-|---14-14---14-14-|---12-12---9-9-|
----11-11----11-11-|-------------------|---14-14---14-14-|---13-13---7-7-|
-------------------|-------------------|-----------------|---------------|
-------------------|-------------------|-----------------|---------------|
-10-------10-------|-10-------10-------|-0-------0-------|-0-------0-----|


----------12-------|-----------------|-------------|---------------|
----12-14----14-14-|---14-14---14-14-|---9-9---9-9-|---9-9-10-9----|
-14----------14-14-|---14-14---14-14-|---9-9---9-9-|---9-9------11-|
-14----------------|-----------------|-------------|---------------|
-0-----------------|-0-------0-------|-------------|---------------|
-------------------|-----------------|-9-----9-----|-9-------------|


-------------------|----14-14----10-10-|-------------------|
----10-10----10-10-|----10-10----10-10-|----15-15----15-15-|
----11-11----11-11-|-------------------|----16-16----16-16-|
-------------------|-------------------|-------------------|
-------------------|-------------------|-------------------|
-10-------10-------|-10-------10-------|-13-------13-------|


----13-13----------|---12-12---12-12-|---12-12----------|
----15-15----15-15-|---14-14---14-14-|---14-14-14-12-10-|
-------------16-16-|-----------------|------------------|
-------------------|-----------------|------------------|
-------------------|-0-------0-------|-0----------------|
-13-------13-------|-----------------|------------------|


-----------------|-------------||
---10-10---10-10-|---9-9---9-9-||
---11-11---11-11-|---9-9---7-7-||
-----------------|-------------||
-----------------|-------------||
-0-------0-------|-0-----0-----||


[Interlude]


-------------------|------5-4---|-------------------|----------------||
---5-5------5-5----|--5-5-----5-|---5-5------5-5----|--5-5------5-5--||
--6-6--------6-----|---6-6------|--6-6--------6-----|---6--------6---||
-7-----------------|------------|-6-----------------|----------------||
-------------------|------------|-------------------|----------------||
-------------------|------------|-------------------|----------------||


[Bridge]


-----------------|-----------------|-----------------|-----------------|
---15-15---15-15-|---14-14---14-14-|---15-15---15-15-|---14-14---12-12-|
---14-14---14-14-|---14-14---14-14-|---14-14---14-14-|---14-14---13-13-|
-0---------------|-----------------|-0---------------|-----------------|
-----------------|-0---------------|-----------------|-0---------------|
-----------------|-----------------|-----------------|-----------------|


-----------------|-----------------|-----------------|-----------------|
---15-15---15-15-|---14-14---12-12-|---12-12---12-12-|---12-12---12-12-|
---14-14---14-14-|---14-14---13-13-|---13-13---13-13-|---13-13---13-13-|
-0---------------|-----------------|-----------------|-----------------|
-----------------|-0---------------|-----------------|-----------------|
-----------------|---------0-------|-0---------------|-----------------|

Tap to rate this tab
# A B C D E F G H I J K L M N O P Q R S T U V W X Y Z