Song name
# A B C D E F G H I J K L M N O P Q R S T U V W X Y Z

Future Of The Left - Arming Eritrea tab

-------------------------------------------------------------------------------
                      ARMING ERITREA - Future Of The Left
-------------------------------------------------------------------------------

Tabbed by: Barney Gale
Email: barney.gale@gmail.com

Tuning: Standard (EADGBe)

Timing is funny :)

    1   2   3   4   5   6   7   1   2   3   4   5   6
e:|---------------------------|-----------------------|
B:|---------------------------|-----------------------|
G:|-0h2---3---0h2---3---3---2-|-0h2---3---0h2---3p0h2-|
D:|---------------------------|-----------------------|
A:|-0-0---0---0-0---0---4---3-|-0-0---0---0-0---4p0h3-|
E:|---------------------------|-----------------------|

    1   2   3   4   5   6   7   1   2   3   4   5   6   7   8
e:|---------------------------|-------------------------------|
B:|---------------------------|-------------------------------|
G:|-0h2---3---0h2---3---3---2-|-0h2---3---0h2---3p0h2---3p0h2-|
D:|---------------------------|-------------------------------|
A:|-0-0---0---0-0---0---4---3-|-0-0---0---0-0---4p0h3---4p0h3-|
E:|---------------------------|-------------------------------|

Play twice.

C'MON RICK!


| h  hammer-on
| p  pull-off
===============================================================================
Tap to rate this tab
# A B C D E F G H I J K L M N O P Q R S T U V W X Y Z