Song name
# A B C D E F G H I J K L M N O P Q R S T U V W X Y Z

Future Of The Left - The Hope That House Built tab

Future of The Left - The Hope That House Built

Great Song - Real easy to play

Intro
e|----------------------------------------------|
B|---4-4-4-4-4-4-44-2---------------------------|
G|--------------------4-------------------------|
D|----------------------------------------------|  x6
A|----------------------------------------------|
E|----------------------------------------------|


Verse
e|----------------------------------------------|
B|----------------------------------------------|
G|----------------------------------------------|
D|----------------------------------------------| Repeat
A|----------------------------------------------|
E|---7-7-7-7-7-7-7-5-7-7-7-7-7-7-7-5------------|

Chorus
e|---7---3---2---0-----2-3---2---0--------------|
B|-----7---5---3---2-0-----5---3---2-0----------|
G|----------------------------------------------|


D|----------------------------------------------|
A|----------------------------------------------|
E|---7-7-7-7-7-7-7-5-7-7-7-7-7-7-7-5------------|
Tap to rate this tab
# A B C D E F G H I J K L M N O P Q R S T U V W X Y Z