Song name
# A B C D E F G H I J K L M N O P Q R S T U V W X Y Z

Future Of The Left - The Hope That House Built tab

Guitar Intro
e ----------------------|
B ----------------------|
G ----------------------|
D ----------------------|
A 2-0-2-6-0-5-55-444443-|
E ----------------------|
(x4)

Verse Part 1
e ----------------|
B ----------------|
G ----------------|
D ----------------|
A 2-2-2-2-2-2-2-0-|
E ----------------|
(x4)

Verse Part 2
e --------------------------------|
B --------------------------------|
G --------------------------------|
D --------------2---------------2-|
A 5-5-5-5-5-5-5-0-4-4-4-4-4-4-4-0-|
E --------------------------------|

Verse Part 1
e ----------------|
B ----------------|
G ----------------|
D ----------------|
A 2-2-2-2-2-2-2-0-|
E ----------------|
(x2)


Verse Part 2
e --------------------------------|
B --------------------------------|
G --------------------------------|
D --------------2---------------2-|
A 5-5-5-5-5-5-5-0-4-4-4-4-4-4-4-0-|
E --------------------------------|

Chorus
e 7------------------------------------------|
B -7-8-5-7---5-----7-8-6-7---5---------------|
G ---------7---6-4---------7---6-4(hold)-6-9-|
D -------------------------------------------|
A -------------------------------------------|
E -------------------------------------------|
(x2)


Verse Part 2
e --------------------------------|
B --------------------------------|
G --------------------------------|
D --------------2---------------2-|
A 5-5-5-5-5-5-5-0-4-4-4-4-4-4-4-0-|
E --------------------------------|

Chorus
e 7------------------------------------------|
B -7-8-5-7---5-----7-8-6-7---5---------------|
G ---------7---6-4---------7---6-4(hold)-6-9-|
D -------------------------------------------|
A -------------------------------------------|
E -------------------------------------------|
(x2)

Verse Part 1
e ----------------|
B ----------------|
G ----------------|
D ----------------|
A 2-2-2-2-2-2-2-0-|
E ----------------|
(x2)


Verse Part 2
e --------------------------------|
B --------------------------------|
G --------------------------------|
D --------------2---------------2-|
A 5-5-5-5-5-5-5-0-4-4-4-4-4-4-4-0-|
E --------------------------------|

Play the last Verse Parts 1 & 2 (x5)
Tap to rate this tab
 
# A B C D E F G H I J K L M N O P Q R S T U V W X Y Z