Song name
# A B C D E F G H I J K L M N O P Q R S T U V W X Y Z

Future Of The Left - My Gymnastic Past tab

www.futureoftheleft.com

Hey, this is my first tab, please rate, thanks
(www.myspace.com/heteroface)

e|2-----0-3-2-|2-----0-3-2-2-||
B|------------|--------------||
G|--3-4-------|--3-4---------||
D|------------|--------------||
A|------------|--------------||
E|------------|--------------||

G|9999-9999-9999-9999-9999-9999||
You get the basic gist of just bending this note and sliding from the eighth fret for 
next bit

e|-------------|
B|-----15---12-|
G|-9-----------|
D|-------------|
A|-7-----------|
E|-------------|
Tap to rate this tab
 
# A B C D E F G H I J K L M N O P Q R S T U V W X Y Z