Guitaretab - guitar tabs
Song name
# A B C D E F G H I J K L M N O P Q R S T U V W X Y Z

Futureheads - Piece Of Crap tab

this is my first tab so be gental
I love these guys there great! futureheads rock!
This is a nice easy tab listen to the song for the tempo 

Intro x1
e--------------------------------------------------------------|
b--------------------------------------------------------------|
g-7-7-7---5-5-5----7-7-7---4-4-4---7-7-7---5-5-5---------------|
d-7-7-7---5-5-5----7-7-7---4-4-4---7-7-7---5-5-5----5--7-7-----|
a-5-5-5---3-3-3----5-5-5---2-2-2---5-5-5---3-3-3----5--7-7-----|
e---------------------------------------------------3-5-5-----|
[ Tab from: http://www.guitaretab.com/f/futureheads/135625.html ]
verse x8
e--------------------------------------------------------------|
b--------------------------------------------------------------|
g-7-7-7---5-5-5------------------------------------------------|
d-7-7-7---5-5-5---5--7-7---------------------------------------|
a-5-5-5---3-3-3---5--7-7---------------------------------------|
e-----------------3-5-5---------------------------------------|

fill in x1
e--------------------------------------------------------------|
b--------------------------------------------------------------|
g-7-7-7---5-5-5----7-7-7---4-4-4---7-7-7---5-5-5---------------|
d-7-7-7---5-5-5----7-7-7---4-4-4---7-7-7---5-5-5----5--7-7-----|
a-5-5-5---3-3-3----5-5-5---2-2-2---5-5-5---3-3-3----5--7-7-----|
e---------------------------------------------------3-5-5-----|
Related for Piece Of Crap tab