Song name
# A B C D E F G H I J K L M N O P Q R S T U V W X Y Z

Futureheads - Heartbeat Song tab

FUTUREHEADS - Heartbeat Song
Tabbed by Chris Bailey (Bournemouth, UK)
www.UKGuitarLessons.com

This song is the rhythm section of the song. I cant believe no-one has attempted 
to tab it yet. Oh well. Here you are:


Standard Tuning, Overdriven Electric Guitar, No capo

STRUCTURE:

Intro (Verse Tab  x2)
Verse 1 (Verse Tab  x4)
Chorus 1 (Chorus 1 Tab  x1)
Post Chorus (Verse Tab  x2)
Verse 2 (Verse Tab  x4)
Chorus 2 (Chorus 2 Tab  x1)
Bridge (Bridge Tab  x1)
Verse 3 (Verse Tab  x8)
Chorus 3 (Chorus 2 Tab  x1)
Ending (Ending Tab)


VERSE TAB

   U D U x   U D U x   U D U x
e------------------------------------
B------------------------------------
G-4-4-4------------------------------
D-4-4-4----4-4-4----6-6-6----2-2-2---
A-2-2-2----4-4-4----6-6-6----2-2-2---
E----------2-2-2----4-4-4----0-0-0---
     B         F#        G#m         E


CHORUS 1 TAB

   D U D U D U D U   D U D U D U D U   D U D U D U D U   D U D U D U D U 
e--------------------------------------------------------------------
B--------------------------------------------------------------------
G-4-4-4-4-4-4-4-4-------------------4-4-4-4-4-4-4-4------------------
D-4-4-4-4-4-4-4-4--2-2-2-2-4-4-4-4--4-4-4-4-4-4-4-4--2-2-2-2-4-4-4-4-
A-2-2-2-2-2-2-2-2--2-2-2-2-4-4-4-4--2-2-2-2-2-2-2-2--2-2-2-2-4-4-4-4-
E------------------0-0-0-0-2-2-2-2-------------------0-0-0-0-2-2-2-2-
          B             E      F#             B             E       F#


   D U D U D U D U   D U D U D U D U   D U D U D U D U   D U D U D U D U 
e--------------------------------------------------------------------
B--------------------------------------------------------------------
G-----------------------------------4-4-4-4----------4-4-4-4-4-4-4-4-
D-6-6-6-6-6-6-6-6--2-2-2-2-2-2-2-2--4-4-4-4-4-4-4-4--4-4-4-4-4-4-4-4-
A-6-6-6-6-6-6-6-6--2-2-2-2-2-2-2-2--2-2-2-2-4-4-4-4--2-2-2-2-2-2-2-2-
E-4-4-4-4-4-4-4-4--0-0-0-0-0-0-0-0----------2-2-2-2------------------
         G#m                E             B       F#            B


CHORUS 2

   D U D U D U D U   D U D U D U D U   D U D U D U D U   D U D U D U D U 
e--------------------------------------------------------------------
B--------------------------------------------------------------------
G-4-4-4-4-4-4-4-4-------------------4-4-4-4-4-4-4-4------------------
D-4-4-4-4-4-4-4-4--2-2-2-2-4-4-4-4--4-4-4-4-4-4-4-4--2-2-2-2-4-4-4-4-
A-2-2-2-2-2-2-2-2--2-2-2-2-4-4-4-4--2-2-2-2-2-2-2-2--2-2-2-2-4-4-4-4-
E------------------0-0-0-0-2-2-2-2-------------------0-0-0-0-2-2-2-2-
          B             E      F#             B             E       F#


   D U D U D U D U   D U D U D U D U   D U D U D U D U   D U D U D U D U 
e--------------------------------------------------------------------
B--------------------------------------------------------------------
G-----------------------------------4-4-4-4----------4-4-4-4-4-4-4-4-
D-6-6-6-6-6-6-6-6--2-2-2-2-2-2-2-2--4-4-4-4-4-4-4-4--4-4-4-4-4-4-4-4-
A-6-6-6-6-6-6-6-6--2-2-2-2-2-2-2-2--2-2-2-2-4-4-4-4--2-2-2-2-2-2-2-2-
E-4-4-4-4-4-4-4-4--0-0-0-0-0-0-0-0----------2-2-2-2------------------
         G#m                E             B       F#            B

   D U D U D U D U   D U D U D U D U   D U D U D U D U   D U D U D U D U 
e--------------------------------------------------------------------
B--------------------------------------------------------------------
G------------------4-4-4-4-4-4-4-4-----------------------------------
D-2-2-2-2-4-4-4-4--4-4-4-4-4-4-4-4--2-2-2-2-4-4-4-4--6-6-6-6-6-6-6-6-
A-2-2-2-2-4-4-4-4--2-2-2-2-2-2-2-2--2-2-2-2-4-4-4-4--6-6-6-6-6-6-6-6-
E-0-0-0-0-2-2-2-2-------------------0-0-0-0-2-2-2-2--4-4-4-4-4-4-4-4-
      E      F#             B             E       F#           G#m

   D U D U D U D U   D U D U D U D U   D U D U D U D U   D U D U D U D U 
e--------------------------------------------------------------------
B--------------------------------------------------------------------
G------------------4-4-4-4----------4-4-4-4-4-4-4-4--4-4-4-4---------
D-2-2-2-2-2-2-2-2--4-4-4-4-4-4-4-4--4-4-4-4-4-4-4-4--4-4-4-4-4-4-4-4-
A-2-2-2-2-2-2-2-2--2-2-2-2-4-4-4-4--2-2-2-2-2-2-2-2--2-2-2-2-4-4-4-4-
E-0-0-0-0-0-0-0-0----------2-2-2-2---------------------------2-2-2-2-
          E             B       F#            B             B       F#

e-----------------
B-----------------
G-----------------
D-2---------------
A-2---------------
E-0---------------



BRIDGE 

e--x--x--x--x----x--x--x------------------------------
B--x--x--x--x----x--x--x------------------------------
G--4--6--8--9----4--6--8----9-8-7-6-5-4-3-------------
D--x--x--x--x----x--x--x----9-8-7-6-5-4-3-7-6-5-5-54--
A--2--4--6--7----2--4--6----7-6-5-4-3-2-1-7-6-5-5-54--
E--x--x--x--x----x--x--x------------------5-4-3-3-32--



ENDING

   D U D U D U D U   D U D U D U D U   D U D U D U D U   D U D U D U D U 
e--------------------------------------------------------------------
B--------------------------------------------------------------------
G-4-4-4-4----------4-4-4-4-4-4-4-4--4-4-4-4----------4-4-4-4-4-4-4-4-
D-4-4-4-4-4-4-4-4--4-4-4-4-4-4-4-4--4-4-4-4-4-4-4-4--4-4-4-4-4-4-4-4-
A-2-2-2-2-4-4-4-4--2-2-2-2-2-2-2-2--2-2-2-2-4-4-4-4--2-2-2-2-2-2-2-2-
E---------2-2-2-2---------------------------2-2-2-2------------------
      B       F#            B                     F#            B
Tap to rate this tab
 
# A B C D E F G H I J K L M N O P Q R S T U V W X Y Z