Song name
# A B C D E F G H I J K L M N O P Q R S T U V W X Y Z

Futures - The Boy Who Cried Wolf tab

Song:The Boy Who Cried Wolf
Artist:Futures
Tunning:drop d

This is the tab for the rhythm guitar only


Tabbed: Reece Russell

Verse
e--------------------------|
B--------------------------|
G--------4-44--9-99--8-88--|
D--7-77--4-44--9-99--9-99--|x4 
A--7-77--6-66--7-77--6-66--|
D--7-77--------------------|
one the last bar of the first verse strum the last chord
and on the next verse leave out the last chord and keep strumming the 3rd chord :)

Chorus
e-------------------|
B-------------------|
G-------------------|
D--7---9---11---2---|x2
A--7x8-9x8-11x8-2x8-|
D--7---9---11---2---|

Bridge 
e---------------------|    e----------------------|
B---------------------|    B----------------------|
G---------------------|    G----------------------|
D--2~--4~--9~--11~----|    D--2----11---9---------|
A--2~--4~--9~--11~----|x4  A--2x16-11x8-9x8-------|x4 palm muted
D--2~--4~--9~--11~----|    D--2----11---9---------|

Enjoy sorry if anything is wrong pretty sure its write :D
Tap to rate this tab
# A B C D E F G H I J K L M N O P Q R S T U V W X Y Z