Guitaretab - guitar tabs
Song name
# A B C D E F G H I J K L M N O P Q R S T U V W X Y Z

Fuzigish - Scratching tab

Hi guys this isn't my first tab since I sent one off but it didnt get published even 
i spent hours on it, o well, hopefully this one will get published since there's only one 
version which is the intro version. :)

Anyway this is a sick punk ska song and here's a litte pointers to help u read my tab:
pm = palm mute
o = take off the palm mute
^ =  bend the strings
(*) = some places there wasn't space to put the number of beats in.
/ = the off beat

Also I wrote out the tab in full so u don't have to keep going back when the same bit 
just scroll down methodically. And i put some of the beats in for those who like to count.

Well enjoy!

INTRO- (distortion guitar)
e---------------------------------------------------------------------------|
B-----------------7---7---7-7-7-7-9---9---9-9-9-9---------------------------|
G-4---4---4-4-4-4-7---7---7-7-7-7-9---9---9-9-9-9-9---8---6---4-------------|
D-5---5---5-5-5-5-7---7---7-7-7-7-9---9---9-9-9-9-10--9---7---5-------------|
A-5---5---5-5-5-5-5---5---5-5-5-5-7---7---7-7-7-7-10--9---7---5-------------|
E-3---3---3-3-3-3---------------------------------8---7---5---3-------------|

e---------------------------------------------------------------------------|
B-----------------7---------------9-----------------------------------------|
G-4--(count-------7---(3 beats)---9-(3 beats)-----9---8---6---4-------------|
D-5----3----------7---------------9---------------10--9---7---5-------------|
A-5--beats)-------5---------------7---------------10--9---7---5-------------|
E-3-----------------------------------------------8---7---5---3-------------|

e---------------------------------------------------------------------------|
B-----------------7---7---7-7-7-7-9---9---9-9-9-9---------------------------|
G-4---4---4-4-4-4-7---7---7-7-7-7-9---9---9-9-9-9-9---8---6---4-------------|
D-5---5---5-5-5-5-7---7---7-7-7-7-9---9---9-9-9-9-10--9---7---5-------------|
A-5---5---5-5-5-5-5---5---5-5-5-5-7---7---7-7-7-7-10--9---7---5-------------|
E-3---3---3-3-3-3---------------------------------8---7---5---3-------------|

e---------------------------------------------------------------------------|
B-----------------7---7---7-7-7-7-9---9---9-9-9-9---------------------------|
G-4---4---4-4-4-4-7---7---7-7-7-7-9---9---9-9-9-9-9---8---6---4-------------|
D-5---5---5-5-5-5-7---7---7-7-7-7-9---9---9-9-9-9-10--9---7---5-------------|
A-5---5---5-5-5-5-5---5---5-5-5-5-7---7---7-7-7-7-10--9---7---5-------------|
E-3---3---3-3-3-3---------------------------------8---7---5---3-------------|

VERSE- (distortion guitar still)
      pm          o   pm          o   pm          o
e---------------------------------------------------------------------------|
B-----------------7---7-7-7-7-7-7-9---9-9-9-9-9-9---------------------------|
G-4---4-4-4-4-4-4-7---7-7-7-7-7-7-9---9-9-9-9-9-9-9---8---6---4-------------|
D-5---5-5-5-5-5-5-7---7-7-7-7-7-7-9---9-9-9-9-9-9-10--9---7---5-------------|
A-5---5-5-5-5-5-5-5---5-5-5-5-5-5-7---7-7-7-7-7-7-10--9---7---5-------------|
E-3---3-3-3-3-3-3---------------------------------8---7---5---3-------------|

      pm          o   pm          o   pm          o
e---------------------------------------------------------------------------|
B-----------------7---7-7-7-7-7-7-9---9-9-9-9-9-9---------------------------|
G-4---4-4-4-4-4-4-7---7-7-7-7-7-7-9---9-9-9-9-9-9-9---8---6---4-------------|
D-5---5-5-5-5-5-5-7---7-7-7-7-7-7-9---9-9-9-9-9-9-10--9---7---5-------------|
A-5---5-5-5-5-5-5-5---5-5-5-5-5-5-7---7-7-7-7-7-7-10--9---7---5-------------|
E-3---3-3-3-3-3-3---------------------------------8---7---5---3-------------|

e---------------------------------------------------------------------------|
B-----------------7---7-7-7^8-----9---9-9-9^10------------------------------|
G-4---4-4-4^5-----7---7-7-7^8-----9---9-9-9^10----9---8---6---4-------------|
D-5---5-5-5^6-----7---7-7-7^8-----9---9-9-9^10----10--9---7---5-------------|
A-5---5-5-5^6-----5---5-5-5-------7---7-7-7-------10--9---7---5-------------|
E-3---3-3-3---------------------------------------8---7---5---3-------------|

e---------------------------------------------------------------------------|
B-----------------7---7-7-7-7-7-7-9---9-9-9-9-9-9---------------------------|
G-4---4-4-4-4-4-4-7---7-7-7-7-7-7-9---9-9-9-9-9-9-9---8---6---4-------------|
D-5---5-5-5-5-5-5-7---7-7-7-7-7-7-9---9-9-9-9-9-9-10--9---7---5-------------|
A-5---5-5-5-5-5-5-5---5-5-5-5-5-5-7---7-7-7-7-7-7-10--9---7---5-------------|
E-3---3-3-3-3-3-3---------------------------------8---7---5---3-------------|

PRE CHORUS-(distortion guitar STILL)                 (*) = 1 beat
e---------------------------------------------------------------------------|
B---------------------------------------------------------------------------|
G-9--9------------6-6-------------8-8-------------6-6-----8-8---------------|
D-10-10---(count--7-7---(3 beats)-9-9--(3 beats)--7-7-(*)-9-9-(1 beat)------|
A-10-10-----3-----7-7-------------9-9-------------7-7-----9-9---------------|
E-8--8----beats)--5-5-------------7-7-------------5-5-----7-7---------------|

                                                      (*) = 1 beat
e---------------------------------------------------------------------------|
B---------------------------------------------------------------------------|
G-9--9------------6-6-------------------------------------------------------|
D-10-10---(count--7-7---(3 beats)-------------------------------------------|
A-10-10-----3-----7-7-------------------------------------------------------|
E-8--8----beats)--5-5-------------------------------------------------------|

CHORUS-(cleaner guitar sound FINALLY) it's off beat by the way:
    /    /   /   /   /   /   /   /   /    /   /   /   /   /   /   /
e-3-3-3--2---2---5---5---7---7-7-7-3-3-3--2---2---5---5---7---7-7-7---------|
B-3-3-3--3---3---5---5---7---7-7-7-3-3-3--3---3---5---5---7---7-7-7---------|
G-4-4-4--4---4---5---5---7---7-7-7-4-4-4--4---4---5---5---7---7-7-7---------|
D---------------------------------------------------------------------------|
A---------------------------------------------------------------------------|
E---------------------------------------------------------------------------|

    /    /   /   /   /   /   /   /   /    /   /   /   /   /   /   /
e-3-3-3--2---2---5---5---7---7-7-7-3-3-3--2---2---5---5---7---7-7-7---------|
B-3-3-3--3---3---5---5---7---7-7-7-3-3-3--3---3---5---5---7---7-7-7---------|
G-4-4-4--4---4---5---5---7---7-7-7-4-4-4--4---4---5---5---7---7-7-7---------|
D---------------------------------------------------------------------------|
A---------------------------------------------------------------------------|
E---------------------------------------------------------------------------|

POST CHORUS- (cleaner guitar sound still) i'm not exactly sure about this bit but it 
goes alright with the track, if there's any better suggestions then let me know
  /   /   /   /   /   /   /   /   /   /   /   /   /   /   /   /
e-3---3---2---2---0---0---2---2---3---3---2---2---0---0---2---2-------------|
B-3---3---3---3---1---1---3---3---3---3---3---3---1---1---3---3-------------|
G-4---4---4---4---0---0---4---4---4---4---4---4---0---0---4---4-------------|
D---------------------------------------------------------------------------|
A---------------------------------------------------------------------------|
E---------------------------------------------------------------------------|
[ Tab from: http://www.guitaretab.com/f/fuzigish/86276.html ]
  /   /   /   /   /   /   /   /   /   /   /   /   /   /   /   /
e-3-3-3---2---2---0---0---2---2---3---3---2---2---0---0---2---2-------------|
B-3-3-3---3---3---1---1---3---3---3---3---3---3---1---1---3---3-------------|
G-4-4-4---4---4---0---0---4---4---4---4---4---4---0---0---4---4-------------|
D---------------------------------------------------------------------------|
A---------------------------------------------------------------------------|
E---------------------------------------------------------------------------|

  /   /   /   /   /   /   /   /   /   /   /   /   /   /   /   /
e-3---3---5---5---7---7---5---5---3---3---5---5---7---7---5---5-------------|
B-3---3---5---5---7---7---5---5---3---3---5---5---7---7---5---5-------------|
G-4---4---5---5---7---7---5---5---4---4---5---5---7---7---5---5-------------|
D---------------------------------------------------------------------------|
A---------------------------------------------------------------------------|
E---------------------------------------------------------------------------|

  /   /   /   /   /   /   /   /   /   /   /   /   /   /   /   /
e-3-3-3---5---5---7---7---5---5---3---3---5---5---7---7---5---5-------------|
B-3-3-3---5---5---7---7---5---5---3---3---5---5---7---7---5---5-------------|
G-4-4-4---5---5---7---7---5---5---4---4---5---5---7---7---5---5-------------|
D---------------------------------------------------------------------------|
A---------------------------------------------------------------------------|
E---------------------------------------------------------------------------|

PRE SOLO -(distorted guitar again) and not off beat anymore
e-5-5-5-5-5-5-5-5-3-3-3-3-3-3-3-3-5-5-5-5-5-5-5-5-7-7-7-7-7-7-7-7-----------|
B-5-5-5-5-5-5-5-5-3-3-3-3-3-3-3-3-5-5-5-5-5-5-5-5-7-7-7-7-7-7-7-7-----------|
G-5-5-5-5-5-5-5-5-4-4-4-4-4-4-4-4-5-5-5-5-5-5-5-5-7-7-7-7-7-7-7-7-----------|
D---------------------------------------------------------------------------|
A---------------------------------------------------------------------------|
E---------------------------------------------------------------------------|

e-5-5-5-5-5-5-5-5-3-3-3-3-3-3-3-3-5-5-5-5-5-5-5-5-8-8-8-8-8-8-8-8-----------|
B-5-5-5-5-5-5-5-5-3-3-3-3-3-3-3-3-5-5-5-5-5-5-5-5-8-8-8-8-8-8-8-8-----------|
G-5-5-5-5-5-5-5-5-4-4-4-4-4-4-4-4-5-5-5-5-5-5-5-5-9-9-9-9-9-9-9-9-----------|
D---------------------------------------------------------------------------|
A---------------------------------------------------------------------------|
E---------------------------------------------------------------------------|

SOLO -(distortion) I can play it but tabbing out is tricky :S I'll try, if it doesn't 
sense just do what I do and figure it out from the song, the notes are here anyway:
     /    /   /   /   /   /    /   /       /    /   /   /   /    /
e-10-10---8---7---8---7--------7--------10-10---8---7---8---10---12---------|
B-------------------------10-------10---------------------------------------|
G---------------------------------------------------------------------------|
D---------------------------------------------------------------------------|
A---------------------------------------------------------------------------|
E---------------------------------------------------------------------------|

e---------------------------------------------------------------------------|
B--10-10-10-10-10-10-10-10-8-8-8-8-8-8-8-8-7-7-7-7-7-7-7-7-3-3-3-3-3-3-3-3--|
G---------------------------------------------------------------------------|
D---------------------------------------------------------------------------|
A---------------------------------------------------------------------------|
E---------------------------------------------------------------------------|

PRE CHORUS- (still distortion guitar)
I'm gonna put a pm at the beginning of each bar to hopefully help
   pm              pm              pm              pm
e---------------------------------------------------------------------------|
B---------------------------------------------------------------------------|
G--5-5-5-5-5-5-5-5-5-5-5-5-5-5-5-5-5-5-5-5-5-5-5-5-5-5-5-5-5-5-5-5----------|
D---------------------------------------------------------------------------|
A---------------------------------------------------------------------------|
E---------------------------------------------------------------------------|
                  Guitar feed back HERE somehow :S
   pm              pm              pm              pm
e---------------------------------------------------------------------------|
B---------------------------------------------------------------------------|
G--5-5-5-5-5-5-5-5-5-5-5-5-5-5-5-5-5-5-5-5-5-5-5-5-5-5-5-5-5-5-5-5----------|
D---------------------------------------------------------------------------|
A---------------------------------------------------------------------------|
E---------------------------------------------------------------------------|

(*) = begginning of bar in this instance
  (*)             (*)             (*)             (*)
e--8-8-8-8-8-8-8-8-8-8-8-8-8-8-8-8-8-8-8-8-8-8-8-8-8-8-8-8-8-8-8-8----------|
B--8-8-8-8-8-8-8-8-8-8-8-8-8-8-8-8-8-8-8-8-8-8-8-8-8-8-8-8-8-8-8-8----------|
G--9-9-9-9-9-9-9-9-9-9-9-9-9-9-9-9-9-9-9-9-9-9-9-9-9-9-9-9-9-9-9-9----------|
D---------------------------------------------------------------------------|
A---------------------------------------------------------------------------|
E---------------------------------------------------------------------------|

  (*)             (*)
e--8-8-8-8-8-8-8-8-8-8-8-8-8-8-8-8------------------------------------------|
B--8-8-8-8-8-8-8-8-8-8-8-8-8-8-8-8------------------------------------------|
G--9-9-9-9-9-9-9-9-9-9-9-9-9-9-9-9------------------------------------------|
D---------------------------------------------------------------------------|
A---------------------------------------------------------------------------|
E---------------------------------------------------------------------------|

CHORUS- (distortion guitar)
e---------------------------------------------------------------------------|
B---------3-3-3-3-5-5-5-5-3-3-3-3---------3-3-3-3-5-5-5-5-3-3-3-3-----------|
G-4-4-4-4-4-4-4-4-5-5-5-5-4-4-4-4-4-4-4-4-4-4-4-4-5-5-5-5-4-4-4-4-----------|
D-5-5-5-5-4-4-4-4-5-5-5-5-4-4-4-4-5-5-5-5-4-4-4-4-5-5-5-5-4-4-4-4-----------|
A-5-5-5-5-2-2-2-2-3-3-3-3-2-2-2-2-5-5-5-5-2-2-2-2-3-3-3-3-2-2-2-2-----------|
E-3-3-3-3-------------------------3-3-3-3-----------------------------------|

e---------------------------------------------------------------------------|
B---------3-3-3-3-5-5-5-5-3-3-3-3---------3-3-3-3-5-5-5-5-3-3-3-3-----------|
G-4-4-4-4-4-4-4-4-5-5-5-5-4-4-4-4-4-4-4-4-4-4-4-4-5-5-5-5-4-4-4-4-----------|
D-5-5-5-5-4-4-4-4-5-5-5-5-4-4-4-4-5-5-5-5-4-4-4-4-5-5-5-5-4-4-4-4-----------|
A-5-5-5-5-2-2-2-2-3-3-3-3-2-2-2-2-5-5-5-5-2-2-2-2-3-3-3-3-2-2-2-2-----------|
E-3-3-3-3-------------------------3-3-3-3-----------------------------------|

e---------------------------------------------------------------------------|
B---------3-3-3-3-5-5-5-5-3-3-3-3---------3-3-3-3-5-5-5-5-3-3-3-3-----------|
G-4-4-4-4-4-4-4-4-5-5-5-5-4-4-4-4-4-4-4-4-4-4-4-4-5-5-5-5-4-4-4-4-----------|
D-5-5-5-5-4-4-4-4-5-5-5-5-4-4-4-4-5-5-5-5-4-4-4-4-5-5-5-5-4-4-4-4-----------|
A-5-5-5-5-2-2-2-2-3-3-3-3-2-2-2-2-5-5-5-5-2-2-2-2-3-3-3-3-2-2-2-2-----------|
E-3-3-3-3-------------------------3-3-3-3-----------------------------------|

e---------------------------------------------------------------------------|
B---------3-3-3-3-5-5-5-5-3-3-3-3---------3-3-3-3-5-5-5-5-3-3-3-3-----------|
G-4-4-4-4-4-4-4-4-5-5-5-5-4-4-4-4-4-4-4-4-4-4-4-4-5-5-5-5-4-4-4-4-----------|
D-5-5-5-5-4-4-4-4-5-5-5-5-4-4-4-4-5-5-5-5-4-4-4-4-5-5-5-5-4-4-4-4-----------|
A-5-5-5-5-2-2-2-2-3-3-3-3-2-2-2-2-5-5-5-5-2-2-2-2-3-3-3-3-2-2-2-2-----------|
E-3-3-3-3-------------------------3-3-3-3-----------------------------------|
Related for Scratching tab