Song name
# A B C D E F G H I J K L M N O P Q R S T U V W X Y Z

Fuzigish - United Divided tab

Hello my second tab and another Fuzigish one (I've done Scratching too)
I think I might actually do ALL the Fuzigish tabs cos they're such immense
songs hopefully you like them as well, please rate my tab :)

And from now on when I have a tab I'm gonna put (pats version) next to it so
you know it's me and you know that it wasnt just a half-arse job like some
of the tabs and then if there are a lot of the same tabs you'll choose mine

Any way here's the

Key for guitar:
\ slide down (with the pick only in this song)
^ bend from number x to number y (x^y) geddit?
X mute this part of the string with left hand (just put your finger over the
  fret lightly)

All the parts are in order and there are no repeats so just scroll down
methodically as you do

I also put in the lyrics apart from some bit I couldn't hear :S o well and
sorry some of it is in text language, I couldn't fit it all on correctly

Key for lyrics:
Lyrics in lower case= main singer
LYRICS IN CAPITALS= backing vocals

INTRO
e----------------------------------------------------------------------------|
b----------------------------------------------------------------------------|
g----------------------------------------------------------(slide with pick)-|
d-9--4--5--7----9--4--5--7--7--9--4--5--7----9--4--5--7--7--\-(for-----------|
a-9--4--5--7----9--4--5--7--7--9--4--5--7----9--4--5--7--7--\--one-----------|
e-7--2--3--5----7--2--3--5--5--7--2--3--5----7--2--3--5--5--\--bar)----------|

Pre Verse 1
e-----------------------------------------------------------------------------|
b-----------------------------------------------------------------------------|
g-------------------9-9-X-7--9--12-12-X-11--9-------------------7-7-X-6--7--6-|
d----4--5--4--------X-X-X-X--X--X--X--X-X---X----4--5--4--------X-X-X-X--X--X-|
a-------------7--5--7-7-X-5--7--10-10-X-9---7-------------7--5--5-5-X-4--5--4-|
e-7--------------------------------------------7------------------------------|

e-----------------------------------------------------------------------------|
b-----------------------------------------------------------------------------|
g-------------------9-9-X-7--9--12-12-X-11--9-------------------7-7-X-6--7--6-|
d----4--5--4--------X-X-X-X--X--X--X--X-X---X----4--5--4--------X-X-X-X--X--X-|
a-------------7--5--7-7-X-5--7--10-10-X-9---7-------------7--5--5-5-X-4--5--4-|
e-7--------------------------------------------7------------------------------|

VERSE 1
e----------------------------------------------------------------------------|
b----------------------------------------------------------------------------|
g----------------------------------------------------------------------------|
d-9--------------------------------------------------------------------------|
a-9--------------------------------------------------------------------------|
e-7--------------------------------------------------------------------------|
    can you hear the drums of war?
    who do you trust? who do you fight for?
    you believe all that they say
    those words will turn you INTO SLAVES

CHORUS 1
e----------------------------------------------------------------------------|
b----------------------------------------------------------------------------|
g---------------------------------9-9-9-9-9-9-9-9----------------------------|
d-9-9-9-9-9-9-9-9-5-5-5-5-5-5-5-5-9-9-9-9-9-9-9-9-5-5-5-5-5-5-5-5------------|
a-9-9-9-9-9-9-9-9-5-5-5-5-5-5-5-5-7-7-7-7-7-7-7-7-5-5-5-5-5-5-5-5------------|
e-7-7-7-7-7-7-7-7-3-3-3-3-3-3-3-3-----------------3-3-3-3-3-3-3-3------------|
U-NI______________TED...              i   feel ur hate tonight

e----------------------------------------------------------------------------|
b----------------------------------------------------------------------------|
g---------------------------------9-9-9-9-9-9-9-9----------------------------|
d-9-9-9-9-9-9-9-9-5-5-5-5-5-5-5-5-9-9-9-9-9-9-9-9-5-5-5-5-5-5-5-5------------|
a-9-9-9-9-9-9-9-9-5-5-5-5-5-5-5-5-7-7-7-7-7-7-7-7-5-5-5-5-5-5-5-5------------|
e-7-7-7-7-7-7-7-7-3-3-3-3-3-3-3-3-----------------3-3-3-3-3-3-3-3------------|
DIVI______________DED...              dont wanna  be  a   part of

Pre Verse 2
e-----------------------------------------------------------------------------|
b-----------------------------------------------------------------------------|
g-------------------9-9-X-7--9--12-12-X-11--9-------------------7-7-X-6--7--6-|
d----4--5--4--------X-X-X-X--X--X--X--X-X---X----4--5--4--------X-X-X-X--X--X-|
a-------------7--5--7-7-X-5--7--10-10-X-9---7-------------7--5--5-5-X-4--5--4-|
e-7--------------------------------------------7------------------------------|
  this

Verse 2
e----------------------------------------------------------------------------|
b----------------------------------------------------------------------------|
g----------------------------------------------------------------------------|
d-9--------------------------------------------------------------------------|
a-9--------------------------------------------------------------------------|
e-7--------------------------------------------------------------------------|
  some'll rise and some'll fall
  as powers play these power wars
  push you down false opinon
  make you side with THEIR DOMINION

CHORUS 2
e----------------------------------------------------------------------------|
b----------------------------------------------------------------------------|
g---------------------------------9-9-9-9-9-9-9-9----------------------------|
d-9-9-9-9-9-9-9-9-5-5-5-5-5-5-5-5-9-9-9-9-9-9-9-9-5-5-5-5-5-5-5-5------------|
a-9-9-9-9-9-9-9-9-5-5-5-5-5-5-5-5-7-7-7-7-7-7-7-7-5-5-5-5-5-5-5-5------------|
e-7-7-7-7-7-7-7-7-3-3-3-3-3-3-3-3-----------------3-3-3-3-3-3-3-3------------|
U-NI______________TED...              i   feel ur hate tonight

e----------------------------------------------------------------------------|
b----------------------------------------------------------------------------|
g---------------------------------9-9-9-9-9-9-9-9----------------------------|
d-9-9-9-9-9-9-9-9-5-5-5-5-5-5-5-5-9-9-9-9-9-9-9-9-5-5-5-5-5-5-5-5------------|
a-9-9-9-9-9-9-9-9-5-5-5-5-5-5-5-5-7-7-7-7-7-7-7-7-5-5-5-5-5-5-5-5------------|
e-7-7-7-7-7-7-7-7-3-3-3-3-3-3-3-3-----------------3-3-3-3-3-3-3-3------------|
DIVI______________DED...              dont wanna  be  a   part of

Pre Verse 3   Verse
e----------------------------------------------------------------------------|
b----------------------------------------------------------------------------|
g----------------------------------------------------------------------------|
d-9-(wait-9-9--(bass plays)--------------------------------------------------|
a-9--two--9-9----------------------------------------------------------------|
e-7--bars)7-7----------------------------------------------------------------|
  this        and i, i feel you tonight...and i, i feel you tonight

Pre Chorus 1
e----------------------------------------------------------------------------|
b----------------------------------------------------------------------------|
g-----------------9-9-9-9-9-9-9-9-7-7-7-7-7-7-7-7-6-6-6-6-X-7-X-6------------|
d-9-9-9-9-9-9-9-9-X-X-X-X-X-X-X-X-X-X-X-X-X-X-X-X-X-X-X-X-X-X-X-X------------|
a-X-X-X-X-X-X-X-X-7-7-7-7-7-7-7-7-5-5-5-5-5-5-5-5-4-4-4-4-X-5-X-4------------|
e-7-7-7-7-7-7-7-7------------------------------------------------------------|
& i,          i   feel you    to- night

e----------------------------------------------------------------------------|
b----------------------------------------------------------------------------|
g-----------------9-9-9-9-9-9-9-9-7-7-------------7-7------------------------|
d-9-9-9-9-9-9-9-9-X-X-X-X-X-X-X-X-X-X-X-X-X-X-X-X-X-X-X-X-X-X-X-X------------|
a-X-X-X-X-X-X-X-X-7-7-7-7-7-7-7-7-5-5-------------5-5------------------------|
e-7-7-7-7-7-7-7-7------------------------------------------------------------|
& i,              DONT NEED UR H8 2NIGHT          NO!

CHORUS 3
e----------------------------------------------------------------------------|
b----------------------------------------------------------------------------|
g---------------------------------9-9-9-9-9-9-9-9----------------------------|
d-9-9-9-9-9-9-9-9-5-5-5-5-5-5-5-5-9-9-9-9-9-9-9-9-5-5-5-5-5-5-5-5------------|
a-9-9-9-9-9-9-9-9-5-5-5-5-5-5-5-5-7-7-7-7-7-7-7-7-5-5-5-5-5-5-5-5------------|
e-7-7-7-7-7-7-7-7-3-3-3-3-3-3-3-3-----------------3-3-3-3-3-3-3-3------------|
U-NI______________TED...              i   feel ur hate tonight

e----------------------------------------------------------------------------|
b----------------------------------------------------------------------------|
g---------------------------------9-9-9-9-9-9-9-9----------------------------|
d-9-9-9-9-9-9-9-9-5-5-5-5-5-5-5-5-9-9-9-9-9-9-9-9-5-5-5-5-5-5-5-5------------|
a-9-9-9-9-9-9-9-9-5-5-5-5-5-5-5-5-7-7-7-7-7-7-7-7-5-5-5-5-5-5-5-5------------|
e-7-7-7-7-7-7-7-7-3-3-3-3-3-3-3-3-----------------3-3-3-3-3-3-3-3------------|
DIVI______________DED...              dont wanna  be  a   part of

e----------------------------------------------------------------------------|
b----------------------------------------------------------------------------|
g---------------------------------9-9-9-9-9-9-9-9----------------------------|
d-9-9-9-9-9-9-9-9-5-5-5-5-5-5-5-5-9-9-9-9-9-9-9-9-5-5-5-5-5-5-5-5------------|
a-9-9-9-9-9-9-9-9-5-5-5-5-5-5-5-5-7-7-7-7-7-7-7-7-5-5-5-5-5-5-5-5------------|
e-7-7-7-7-7-7-7-7-3-3-3-3-3-3-3-3-----------------3-3-3-3-3-3-3-3------------|
U-NI______________TED...              i   feel ur hate tonight

e----------------------------------------------------------------------------|
b----------------------------------------------------------------------------|
g---------------------------------9-9-9-9-9-9-9-9----------------------------|
d-9-9-9-9-9-9-9-9-5-5-5-5-5-5-5-5-9-9-9-9-9-9-9-9-5-5-5-5-5-5-5-5------------|
a-9-9-9-9-9-9-9-9-5-5-5-5-5-5-5-5-7-7-7-7-7-7-7-7-5-5-5-5-5-5-5-5------------|
e-7-7-7-7-7-7-7-7-3-3-3-3-3-3-3-3-----------------3-3-3-3-3-3-3-3------------|
DIVI______________DED...              dont wanna  be  a   part of this
                                                                  UNITED!
i feel your hate tonight DIVIDED don't wanna be a part

Outro
e----------------------------------------------------------------------------|
b----------------------------------------------------------------------------|
g---------------------------------7-7-7-7-7-7-7-7-9^10-9^10-9^10-------------|
d-9-9-9-9-9-9-9-9-5-5-5-5-5-5-5-5-7-7-7-7-7-7-7-7-9^10-9^10-9^10-------------|
a-9-9-9-9-9-9-9-9-5-5-5-5-5-5-5-5-5-5-5-5-5-5-5-5-7^8--7^8--7^8--------------|
e-7-7-7-7-7-7-7-7-3-3-3-3-3-3-3-3--------------------------------------------|
U-NITED         DIVIDED       I   feel your hate I feel inside it

e----------------------------------------------------------------------------|
b----------------------------------------------------------------------------|
g---------------------------------7-7-7-7-7-7-7-7-9^10-9^10-9^10-------------|
d-9-9-9-9-9-9-9-9-5-5-5-5-5-5-5-5-7-7-7-7-7-7-7-7-9^10-9^10-9^10-------------|
a-9-9-9-9-9-9-9-9-5-5-5-5-5-5-5-5-5-5-5-5-5-5-5-5-7^8--7^8--7^8--------------|
e-7-7-7-7-7-7-7-7-3-3-3-3-3-3-3-3--------------------------------------------|
U-NITED         DIVIDED
Control and    oppresion          false belief and lame aggression

e----------------------------------------------------------------------------|
b----------------------------------------------------------------------------|
g---------------------------------7-7-7-7-7-7-7-7-9^10-9^10-9^10-------------|
d-9-9-9-9-9-9-9-9-5-5-5-5-5-5-5-5-7-7-7-7-7-7-7-7-9^10-9^10-9^10-------------|
a-9-9-9-9-9-9-9-9-5-5-5-5-5-5-5-5-5-5-5-5-5-5-5-5-7^8--7^8--7^8--------------|
e-7-7-7-7-7-7-7-7-3-3-3-3-3-3-3-3--------------------------------------------|
U-NITED         DIVIDED
?????????????????????????????? insecurity in which you hide

                                                  slow down_____
e----------------------------------------------------------------------------|
b----------------------------------------------------------------------------|
g---------------------------------7-7-7-7-7-7-7-7-9^10-9^10-9^10-------------|
d-9-9-9-9-9-9-9-9-5-5-5-5-5-5-5-5-7-7-7-7-7-7-7-7-9^10-9^10-9^10-9-----------|
a-9-9-9-9-9-9-9-9-5-5-5-5-5-5-5-5-5-5-5-5-5-5-5-5-7^8--7^8--7^8--9-----------|
e-7-7-7-7-7-7-7-7-3-3-3-3-3-3-3-3--------------------------------7-----------|
U-NITED         DIVIDED           I               FEEL YOUR      HATE HATE...
Tap to rate this tab
# A B C D E F G H I J K L M N O P Q R S T U V W X Y Z