Song name
# A B C D E F G H I J K L M N O P Q R S T U V W X Y Z

Fuzigish - Roll Another One John tab

Great song off of their best album, enjoy......took me like 2 minutes ;-)
update me if errors and check out my other ones.
|------------------------------------------------------------------|
|------2/3\2/3\2------1--------------------------------------------|
|-----------------2----------3--2---2/3\2---0----------------------|
|-----------------------------------------------3--0---------------|
|------------------------------------------------------------------|
|------------------------------------------------------------------|

|------------------------------------------------------------------|
|------2/3\2/3\2------1------------------3-------------------------|
|-----------------2---------3--2---2/3-----------------------------|
|------------------------------------------------------------------|
|------------------------------------------------------------------|
|------------------------------------------------------------------|

|------------------------------------------------------------------|
|------2/3\2/3\2------1--------------------------------------------|
|-----------------2----------3--2---2/3\2---0----------------------|
|-----------------------------------------------3--0---------------|
|------------------------------------------------------------------|
|------------------------------------------------------------------|

|------------------------------------------------------------------|
|------2/3\2/3\2------1--------------------------------------------|
|-----------------2---------3--2---2/3---2-------------------------|
|------------------------------------------------------------------|
|------------------------------------------------------------------|
|------------------------------------------------------------------|

tab should be perfect. will update chorus ASAP along with other fuzzy songs....
Tap to rate this tab
# A B C D E F G H I J K L M N O P Q R S T U V W X Y Z