Song name
# A B C D E F G H I J K L M N O P Q R S T U V W X Y Z

Fuzigish - Shoot Up Shot Down tab

Hi this is my 3rd Fuzigish tab (me = Patrick)
I've tabbed this out fully so all u need 2 do is scroll down and read off, it's pretty 
me thinks so yer enjoy!
There aren't even any symbols!

INTRO (overdrive)
e----------------------------------------------------------------------------|
b----------------------------------------------------------------------------|
g-5---5---5------------------------------------------------------------------|
d-5---5---5-5---7---7-7-7-7-7-7-3-3-3-3-3-3-3-3-5-5-5-5-5-5-5-5--------------|
a-3---3---3-5---7---7-7-7-7-7-7-3-3-3-3-3-3-3-3-5-5-5-5-5-5-5-5--------------|
E-----------3---5---5-5-5-5-5-5-1-1-1-1-1-1-1-1-3-3-3-3-3-3-3-3--------------|

e----------------------------------------------------------------------------|
b----------------------------------------------------------------------------|
g-5---5---5-7----------------------------------------------------------------|
d-5---5---5-7---7---7-7-7-7-7-7-3-3-3-3-3-3-3-3-5-(let-----------------------|
a-3---3---3-5---7---7-7-7-7-7-7-3-3-3-3-3-3-3-3-5--it------------------------|
E---------------5---5-5-5-5-5-5-1-1-1-1-1-1-1-1-3--ring)---------------------|

VERSE 1 (clean + off beat)
e-3---3---3---3---3---3---3---3---5---5---5---5---5---5---5---5--------------|
b-5---5---5---5---3---3---3---3---6---6---6---6---6---6---6---6--------------|
g-5---5---5---5---4---4---4---4---7---7---7---7---5---5---5---5--------------|
d-5---5---5---5---5---5---5---5---7---7---7---7---7---7---7---7--------------|
a-3---3---3---3---5---5---5---5---5---5---5---5---8---8---8---8--------------|
E-----------------3---3---3---3-------------------5---5---5---5--------------|

                                                 (overdrive)
e-3---3---3---3---3---3---3---3---5---5---5---5---5-5-5-5-5-5-5--------------|
b-5---5---5---5---3---3---3---3---6---6---6---6---6-6-6-6-6-6-6--------------|
g-5---5---5---5---4---4---4---4---7---7---7---7---5-5-5-5-5-5-5--------------|
d-5---5---5---5---5---5---5---5---7---7---7---7---7-7-7-7-7-7-7--------------|
a-3---3---3---3---5---5---5---5---5---5---5---5---8-8-8-8-8-8-8--------------|
E-----------------3---3---3---3-------------------5-5-5-5-5-5-5--------------|

CHORUS 1 (overdrive)
e----------------------------------------------------------------------------|
b----------------------------------------------------------------------------|
g-5---5---5------------------------------------------------------------------|
d-5---5---5-5---7---7-7-7-7-7-7-3-3-3-3-3-3-3-3-5-5-5-5-5-5-5-5--------------|
a-3---3---3-5---7---7-7-7-7-7-7-3-3-3-3-3-3-3-3-5-5-5-5-5-5-5-5--------------|
E-----------3---5---5-5-5-5-5-5-1-1-1-1-1-1-1-1-3-3-3-3-3-3-3-3--------------|

e----------------------------------------------------------------------------|
b----------------------------------------------------------------------------|
g-5---5---5-7----------------------------------------------------------------|
d-5---5---5-7---7---7-7-7-7-7-7-3-3-3-3-3-3-3-3-5-5-5-5-5-5-5-5--------------|
a-3---3---3-5---7---7-7-7-7-7-7-3-3-3-3-3-3-3-3-5-5-5-5-5-5-5-5--------------|
E---------------5---5-5-5-5-5-5-1-1-1-1-1-1-1-1-3-3-3-3-3-3-3-3--------------|

VERSE 1 (clean + off beat)
e-3---3---3---3---3---3---3---3---5---5---5---5---5---5---5---5--------------|
b-5---5---5---5---3---3---3---3---6---6---6---6---6---6---6---6--------------|
g-5---5---5---5---4---4---4---4---7---7---7---7---5---5---5---5--------------|
d-5---5---5---5---5---5---5---5---7---7---7---7---7---7---7---7--------------|
a-3---3---3---3---5---5---5---5---5---5---5---5---8---8---8---8--------------|
E-----------------3---3---3---3-------------------5---5---5---5--------------|

                                                 (overdrive)
e-3---3---3---3---3---3---3---3---5---5---5---5---5-5-5-5-5-5-5--------------|
b-5---5---5---5---3---3---3---3---6---6---6---6---6-6-6-6-6-6-6--------------|
g-5---5---5---5---4---4---4---4---7---7---7---7---5-5-5-5-5-5-5--------------|
d-5---5---5---5---5---5---5---5---7---7---7---7---7-7-7-7-7-7-7--------------|
a-3---3---3---3---5---5---5---5---5---5---5---5---8-8-8-8-8-8-8--------------|
E-----------------3---3---3---3-------------------5-5-5-5-5-5-5--------------|

CHORUS 2 (overdrive)
e----------------------------------------------------------------------------|
b----------------------------------------------------------------------------|
g-5---5---5------------------------------------------------------------------|
d-5---5---5-5---7---7-7-7-7-7-7-3-3-3-3-3-3-3-3-5-5-5-5-5-5-5-5--------------|
a-3---3---3-5---7---7-7-7-7-7-7-3-3-3-3-3-3-3-3-5-5-5-5-5-5-5-5--------------|
E-----------3---5---5-5-5-5-5-5-1-1-1-1-1-1-1-1-3-3-3-3-3-3-3-3--------------|

e----------------------------------------------------------------------------|
b----------------------------------------------------------------------------|
g-5---5---5-7----------------------------------------------------------------|
d-5---5---5-7---7---7-7-7-7-7-7-3-3-3-3-3-3-3-3-5-5-5-5-5-5-5-5--------------|
a-3---3---3-5---7---7-7-7-7-7-7-3-3-3-3-3-3-3-3-5-5-5-5-5-5-5-5--------------|
E---------------5---5-5-5-5-5-5-1-1-1-1-1-1-1-1-3-3-3-3-3-3-3-3--------------|

BRIDGE 1 (overdrive)
e----------------------------------------------------------------------------|
b----------------------------------------------------------------------------|
g-10-(let it----7-7-7-7-7-7-7-7-7-7-7-7-7-7-7-7------------------------------|
d-10--ring for--7-7-7-7-7-7-7-7-7-7-7-7-7-7-7-7------------------------------|
a-8--2 bars)----5-5-5-5-5-5-5-5-5-5-5-5-5-5-5-5------------------------------|
E----------------------------------------------------------------------------|

e----------------------------------------------------------------------------|
b----------------------------------------------------------------------------|
g-10-(let it----7-7-7-7-7-7-7-7-7-7-7-7-7-7-7-7------------------------------|
d-10--ring for--7-7-7-7-7-7-7-7-7-7-7-7-7-7-7-7------------------------------|
a-8--2 bars)----5-5-5-5-5-5-5-5-5-5-5-5-5-5-5-5------------------------------|
E----------------------------------------------------------------------------|

    (supposed to be 2 bars each)
e-----------------------------------------------------------------------------|
b-----------------------------------------------------------------------------|
g-10-10-10-10-10-10-10-10-10-10-10-10-10-10-10-10-7-7-7-7-7-7-7-7-7-7-7-7-7-7-|
d-10-10-10-10-10-10-10-10-10-10-10-10-10-10-10-10-7-7-7-7-7-7-7-7-7-7-7-7-7-7-|
a-8--8--8--8--8--8--8--8--8--8--8--8--8--8--8--8--5-5-5-5-5-5-5-5-5-5-5-5-5-5-|
E-----------------------------------------------------------------------------|

   (supposed to be 2 bars each)
e----------------------------------------------------------------------------|
b----------------------------------------------------------------------------|
g-10-10-10-10-10-10-10-10-10-10-10-10-10-10-10-10-12-12-12-12-12-12-12-12-12-|
d-10-10-10-10-10-10-10-10-10-10-10-10-10-10-10-10-12-12-12-12-12-12-12-12-12-|
a-8--8--8--8--8--8--8--8--8--8--8--8--8--8--8--8--10-10-10-10-10-10-10-10-10-|
E----------------------------------------------------------------------------|

PRE-SOLO 1 (overdrive)
e----------------------------------------------------------------------------|
b----------------------------------------------------------------------------|
g-5---5---------------------5---5-----7-----------------------7--------------|
d-5---5-----5---7---3---5---5---5-----7---7---3-3-3-3-3-3-3-3-7--------------|
a-3---3-----5---7---3---5---3---3-----5---7---3-1-1-1-1-1-1-1-5--------------|
E-----------3---5---1---3-----------------5---1-1-1-1-1-1-1-1----------------|

SOLO 1 (overdrive + guitar 2 plays CHORUS)
e----------------------------------------------------------------------------|
b----------------------------------------------------------------------------|
g-5---5---5-4---5---5-5---5-4---10---10---10-10---12---12-10---9-7-----------|
d----------------------------------------------------------------------------|
a-3---3---3-2---3---3-3---3-2---8----8----8--8----10---10-8----7-5-----------|
E----------------------------------------------------------------------------|

e----------------------------------------------------------------------------|
b----------------------------------------------------------------------------|
g-5---5---5-7---5---5-5---5-5---10---10---10-10---12---12-10---9-7-----------|
d----------------------------------------------------------------------------|
a-3---3---3-5---3---3-3---3-3---8----8----8--8----10---10-8----7-5-----------|
E----------------------------------------------------------------------------|

CHORUS 3(overdrive)
e----------------------------------------------------------------------------|
b----------------------------------------------------------------------------|
g-5---5---5------------------------------------------------------------------|
d-5---5---5-5---7---7-7-7-7-7-7-3-3-3-3-3-3-3-3-5-5-5-5-5-5-5-5--------------|
a-3---3---3-5---7---7-7-7-7-7-7-3-3-3-3-3-3-3-3-5-5-5-5-5-5-5-5--------------|
E-----------3---5---5-5-5-5-5-5-1-1-1-1-1-1-1-1-3-3-3-3-3-3-3-3--------------|

e----------------------------------------------------------------------------|
b----------------------------------------------------------------------------|
g-5---5---5-7----------------------------------------------------------------|
d-5---5---5-7---7---7-7-7-7-7-7-3-3-3-3-3-3-3-3-5-5-5-5-5-5-5-5--------------|
a-3---3---3-5---7---7-7-7-7-7-7-3-3-3-3-3-3-3-3-5-5-5-5-5-5-5-5--------------|
E---------------5---5-5-5-5-5-5-1-1-1-1-1-1-1-1-3-3-3-3-3-3-3-3--------------|

e----------------------------------------------------------------------------|
b----------------------------------------------------------------------------|
g-5---5---5------------------------------------------------------------------|
d-5---5---5-5---7---7-7-7-7-7-7-3-3-3-3-3-3-3-3-5-5-5-5-5-5-5-5--------------|
a-3---3---3-5---7---7-7-7-7-7-7-3-3-3-3-3-3-3-3-5-5-5-5-5-5-5-5--------------|
E-----------3---5---5-5-5-5-5-5-1-1-1-1-1-1-1-1-3-3-3-3-3-3-3-3--------------|

e----------------------------------------------------------------------------|
b----------------------------------------------------------------------------|
g-5---5---5-7----------------------------------------------------------------|
d-5---5---5-7---7---7-7-7-7-7-7-3-3-3-3-3-3-3-3-5-5-5-5-5-5-5-5--------------|
a-3---3---3-5---7---7-7-7-7-7-7-3-3-3-3-3-3-3-3-5-5-5-5-5-5-5-5--------------|
E---------------5---5-5-5-5-5-5-1-1-1-1-1-1-1-1-3-3-3-3-3-3-3-3--------------|

SOLO 2 (overdrive + guitar 2 plays CHORUS)
e----------------------------------------------------------------------------|
b----------------------------------------------------------------------------|
g-5---5---5-4---5---5-5---5-4---10---10---10-10---12---12-10---9-7-----------|
d----------------------------------------------------------------------------|
a-3---3---3-2---3---3-3---3-2---8----8----8--8----10---10-8----7-5-----------|
E----------------------------------------------------------------------------|

e----------------------------------------------------------------------------|
b----------------------------------------------------------------------------|
g-5---5---5-7---5---5-5---5-5---10---10---10-10---12---12-10---9-7-----------|
d----------------------------------------------------------------------------|
a-3---3---3-5---3---3-3---3-3---8----8----8--8----10---10-8----7-5-----------|
E----------------------------------------------------------------------------|

e----------------------------------------------------------------------------|
b----------------------------------------------------------------------------|
g-5---5------5---5\----------------------------------------------------------|
d-5---5------5---5\----------------------------------------------------------|
a-3---3------3---3\----------------------------------------------------------|
E----------------------------------------------------------------------------|
Tap to rate this tab
# A B C D E F G H I J K L M N O P Q R S T U V W X Y Z