Song name
# A B C D E F G H I J K L M N O P Q R S T U V W X Y Z

Fuzon - Tere Bina tab

 Fuzon  -  Tere bina jiya nahi jaaye solo
             From the album “Sagar”

By Sanjeev George and Thomas George
Contact at sanjeevgeorge123@yahoo.co.in

| b  bend
| r  release bend
| /  slide up 
| \  slide down
| h  hammer-on
| p  pull-off
| ~  hold note and let ring
| v  vibrato


e|----------------------------------------------------------------------------|
B|--12h13--12-----12—13v---12---------------------7b8r-7v-----6--7-8-8b10r8---|
G|-------------14--------------14—12v----7/9-5/7------------------------------|
D|----------------------------------------------------------------------------|
A|----------------------------------------------------------------------------|
E|----------------------------------------------------------------------------|

e|---------10-------------------------10-12-----------10v--------------|
B|--10b12-------10b12---10-8----10b12-------10b12r10-------------------|
G|---------------------------------------------------------------------|
D|---------------------------------------------------------------------|
A|---------------------------------------------------------------------|
E|---------------------------------------------------------------------|


e|--12-12-14--15-12--------------------------------------------------|
B|------------------12-15v-----15------15----------------------------|
G|-----------------------------14b16---14b16—r14p12-14---------------|
D|-------------------------------------------------------------------|
A|-------------------------------------------------------------------|
E|-------------------------------------------------------------------|

e|--------12—13b15-13b15-13b15r13---------------------|
B|-----15-------------------------15------------------|
G|--14-------------------------------14v--------------|
D|----------------------------------------------------|
A|----------------------------------------------------|
E|----------------------------------------------------|



Tap to rate this tab
# A B C D E F G H I J K L M N O P Q R S T U V W X Y Z