Guitaretab - guitar tabs
Song name
# A B C D E F G H I J K L M N O P Q R S T U V W X Y Z

Fuzon - Aankhon Ka Sagar tab

PTL

                            Fuzon  Aankhon ka sagar solo
                                From the album Sagar

By Sanjeev George and Thomas George

Contact at SanjeevGeorge123@yahoo.co.in


| / and \ slide up or down, as required
| h  hammer-on
| p  pull-off
| ~  hold note ands let ring
| v  vibrato


e|--------------------------------------------------------------------------|
B|--------------------------------------------------------------------------|
G|----------------------------------------------------------9h11h13---------|
D|--------------------------------9------------9--------7h9-----------------|
A|------------7h11-----7---7h9h11-------7h9h11---7h9h11---------------------|
E|--7-7-7-7h9------7h9---9----------7h9-------------------------------------|

e|--------------------------------------------------------------------------|
B|---9h10-10v---9\5--7-----10\9v\---------4v--------------------------------|
G|---------------------8/9------------4h6------4/6--------------------------|
D|------------------------------------4h6----------7-7/9\7-6v---6h7h9-------|
A|--------------------------------------------------------------------------|
E|--------------------------------------------------------------------------|

e|--------------------------------------------------------------------------|
B|------------------------------9-12----------------------------------------|
G|----------------------------9---------------9----9h11h13p9---------9------|
D|--------------9--------9-11------------9h11---11-----------11p9h11--------|
A|---------7-11---7-9-11------------------------------------------------11--|
E|-----7-9------------------------------------------------------------------|
[ Tab from: http://www.guitaretab.com/f/fuzon/114866.html ]
e|--------------------9h12-12v---9\7h11v---7h9--55h7p5-4v----7h9p7---------|
B|--------------12h14------------------------------------------------9-7----|
G|------9h11h13-------------------------------------------------------------|
D|-9h11---------------------------------------------------------------------|
A|--------------------------------------------------------------------------|
E|--------------------------------------------------------------------------|


e|--------------------------------------9-12-11v----------------------------------|
B|-7-7-9---7h9p7---7-----------------12------------9h10h12---12/14\12-------------|
G|---------------9---------------/11-------------------------11/13\11---11/13\11v-|
D|-------------------9/11\9v--------------------------------------------11/13\11v-|
A|--------------------------------------------------------------------------------|
E|--------------------------------------------------------------------------------|

e|--------------------------------------------------------------------------------|
B|---------------------------------12-9-------------------------------------------|
G|-------------9-13-9\(8)-8-11-9-8------11-9------11-8----------------------------|
D|-------11-13-------------------------------9-11------11-11---7-9-7\6------------|
A|-----9-----------------------------------------------------9---------9-7-6-2v---|
E|--------------------------------------------------------------------------------|

e|--------------------------------------------------------------------------------|
B|-----14p10h12-----------------10-13-12-10---------------------------------------|
G|----------------11/13-11v-----------------13-12-9-11-9-8-------9-8------9v------|
D|---------------------------------------------------------11-10-----9-11---------|
A|--------------------------------------------------------------------------------|
E|--------------------------------------------------------------------------------|

Please rate it. Thank you
Related for Aankhon Ka Sagar tab