Song name
# A B C D E F G H I J K L M N O P Q R S T U V W X Y Z

Fuzon - Khamaj tab

Tuning: Standard
Capo on 4th Fret

e---2---3------7----------2-------------3p2---------------------------------------|
B---3-------5-------3h5-----5--3-------------p5--------2--3-----2-----3-----------|
G---2---------------------------------4----------p4----2-----4-----2--------------|
D------------------------------------------------------------5--------------------|
A---2-------3-------2-------------------------------------------------------------|
E-------------------------------------3-------------------------------------------|

e---------------------------------------------------------------------------------|
B--------h3-----------------------------------------------------------------------|
G---------------------------2---7-------------------------------------------------|
D---4h5------5--4--2-----2--4\5\7-------------------------------------------------|
A---------------------5-----------------------------------------------------------|
E---------------------------------------------------------------------------------|

e---------------------------------------------------------------------------------|
B-----------3---------3----------------3---------3--------------------------------|
G------------------0-----0----------2---------0----0------------------------------|
D-------4------2------------2---4---------2-----------2---------------------------|
A---5-----------------------------------------------------------------------------|
E---------------------------------------------------------------------------------|

Repeat this throughout the song

==================================================================================
| TP trem. picking
| /  slide up
| \  slide down
| h  hammer-on
| p  pull-off
| ~  vibrato
| +  harmonic
| x  Mute note
Tap to rate this tab
 
# A B C D E F G H I J K L M N O P Q R S T U V W X Y Z