Song name
# A B C D E F G H I J K L M N O P Q R S T U V W X Y Z

Fyrdung - Demokrati tab

Help us improve GuitareTab! Take a short survey!
Fyrdung - Demokrati

Ger alla Fyrdung fans en låt som jag finner riktigt bra!

Intro och Vers
Em, C, Am, G, D, 

Refräng
Em, C, G, A, 

Obs! Jag delar inte Fyrdungs åsikter men tycker dock att de spelar riktigt bra musik!

Kan även spelas så här:

Intro och Vers
E|----------------------------------------------------------------|
B|----------------------------------------------------------------|
G|----------------5-5-5-5-5-5-5-5-------------------------7-7-7-7-|
D|2-2-2-2-2-2-2-2-5-5-5-5-5-5-5-5-7-7-7-7-7-7-7-7-5-5-5-5-7-7-7-7-|
A|2-2-2-2-2-2-2-2-3-3-3-3-3-3-3-3-7-7-7-7-7-7-7-7-5-5-5-5-5-5-5-5-|
E|0-0-0-0-0-0-0-0-----------------5-5-5-5-5-5-5-5-3-3-3-3---------|

Refräng
E|----------------------------------------------------------------|
B|----------------------------------------------------------------|
G|----------------5-5-5-5-5-5-5-5---------------------------------|
D|2-2-2-2-2-2-2-2-5-5-5-5-5-5-5-5-5-5-5-5-5-5-5-5-7-7-7-7-7-7-7-7-|
A|2-2-2-2-2-2-2-2-3-3-3-3-3-3-3-3-5-5-5-5-5-5-5-5-7-7-7-7-7-7-7-7-|
E|0-0-0-0-0-0-0-0-----------------3-3-3-3-3-3-3-3-5-5-5-5-5-5-5-5-|

Njut av dessa tabs och chords!!
Related for Demokrati tab