Song name
# A B C D E F G H I J K L M N O P Q R S T U V W X Y Z

G-dragon - That Xx tab

Tabbed by: KaitoNyappy

G-Dragon - THAT XX
It's pretty fun to play. The bass notes that are in parenthesis 
can be substituted for mutes/string slaps, I feel that it sounds'
a lot cooler that way. Credit to keudae@youtube for the basic riff,
to which I added some mutes and notes and such. 

Regarding the chord progression:
The F#7 isn't really an F#7, but some other really strange chord, but I
think that this comes pretty close. It's a simple song, have fun playing it :D

Chords used:
G: 355433 or 320033
F#7: 242222
Bsus2: x24422 or 797779
Am7: x02010


Verse/Bridge
e|------------2-x-------------2-x-------------0-x------------0--x|
B|----0----3----x-----3----3----x------3----3---x-----3----3----x|
G|----0----0----x-----0----0----x------2----2---x-----2----2----x|
D|--------------x---------------x---------------x---------------x|
A|--------------x---------------x---------------x---------------x|
E|--3----(3)----x---3----(3)----x----2---(2)----x---2--(2)------x|
    
e|------------9-x-------------9-x-----------------x|------------5-------x|
B|----7----7----x-----7----7----x------5----5---5-x|---------8--8--8----x|
G|----7----7----x-----7----7----x------5----5---5-x|---------5--5--5----x|
D|--------------x---------------x-----------------x|---------7-----7----x|
A|--------------x---------------x-----------------x|------5-------------x|
E|--7----(7)----x---7----(7)----x----5---(5)--5---x|----5-----(5)-5--5--x|  
                                                      This part is not
                                                    played on the bridge

Pre-Chorus
e|-------------------------------------------------------------|
B|--3--3---3-----3--3---3-----3---3----3----3---3-----3--------|
G|--0--0---0-----2--2---2-----0---0----0----0---0-----2--------|
D|-------------------------------------------------------------|
A|-------------------------------------------------------------|
E|-0-----0---0h2------2---2h3--------3--3--3--------3---2------|

e|-----------------------------|------|
B|--3--3---3-------------------|--3-~-|End
G|--0--0---0-------------------|----~-|bridge
D|----------------0---0------0-|--4-~-|with
A|-----------------------------|------|this, aswell
E|-0-----0---0h2---------2-----|--3-~-||
                                  ^-----

Start strumming G right before the chorus actually begins.'

Chorus:
G                             F#7
Geu saekkiboda naega motan ge mwoya
         Bsus2                   Am7
Dodaeche wae naneun gajil su eomneun geoya
G                                      F#7
Geu saekkineun neoreul saranghaneun ge anya
      Bsus2               Am7
Eonjekkaji babogachi ulgoman isseul geoya

Bridge: Play the verse twice, but end with the
part from the pre-chorus.
Tap to rate this tab
# A B C D E F G H I J K L M N O P Q R S T U V W X Y Z