Song name
# A B C D E F G H I J K L M N O P Q R S T U V W X Y Z

G-dragon - That Xx tab

**NOT MY WORK, ORIGINAL TABBER IS GEMMABELLE**

G-DRAGON - 그 XX (THAT XX)
tabs by Gemmabelle(youtube.com/gmmabellex)

Standard Tuning                                      


Verse 1 (* = tap)
e ---------------2--|---------------2--|---------------0--|---------------0--|
b -----3--*--3------|-----3--*--3------|-----3--*--3------|-----3--*--3------|
g -----4--*--4------|-----4--*--4------|-----3--*--3------|-----3--*--3------|
D -----4--*--4------|-----4--*--4------|-----2--*--2------|-----2--*--2------|
A ------------------|------------------|------------------|------------------|
E --3-----*--3------|--3-----*--3------|--2-----*--2------|--2-----*--2------|

e --------------9--|--------------9--|------------------|---------------5-*--|
b -----7--*--7-----|-----7--*--7-----|----5--*--5----*--|-----5--*--5-----*--|
g -----7--*--7-----|-----7--*--7-----|----5--*--5----*--|-----7--*--7-----*--|
D -----7--*--7-----|-----7--*--7-----|----5--*--5----*--|-----5--*--5-----*--|
A -----------------|-----------------|------------------|--5-----*--5-----*--|
E --7-----*--7-----|--7-----*--7-----|--5----*--5-(5)*--|--------------------|

Pre-chorus 1
e---------------------|--------------------|--------------------|--------------------|
b------5--*--5-----*--|-----3--*--3-----*--|-----3--*--3-----*--|-----3--*--3-----*--|
g------7--*--7-----*--|-----2--*--2-----*--|-----4--*--4-----*--|-----4--*--2-----*--|
D------5--*--5-----*--|-----0--*--0-----*--|-----4--*--4-----*--|-----4--*--0-----*--|
A---------------------|--------------------|--------------------|--------------------|
E --0-----*--0-(0)-*--|--2-----*--2-(2)-*--|--3-----*--3-(3)-*--|--3-----*--2-(2)-*--|
                                          (~ = sustain)(s = slide)
e---------------------|--------------------|---------------(s)--|-------------------|
b------5--*--5-----*--|-----3--*--3-----*--|--3~-----------(s)--|--10--10-10-10-10--|
g------7--*--7-----*--|-----2--*--2-----*--|--4~-----------(s)--|--9---9--9--9--9---|
D------5--*--5-----*--|-----0--*--0-----*--|--4~-----------(s)--|--8---8--8--8--8---|
A---------------------|--------------------|---------------(s)--|--9---9--9--9--9---|
E --0-----*--0-(0)-*--|--2-----*--2-(2)-*--|--3~-----------(s)--|-------------------|

Chorus 1 (strumming)
e ----------------|----------------|----------------|---------5-5-x--|
b --3-3-x--3-3-x--|--2-2-x--2-2-x--|--7-7-x--7-7-x--|--5-5-x--5-5-x--|
g --4-4-x--4-4-x--|--3-3-x--3-3-x--|--7-7-x--7-7-x--|--5-5-x--5-5-x--|
D --4-4-x--4-4-x--|--2-2-x--2-2-x--|--7-7-x--7-7-x--|--5-5-x--7-7-x--|
A --5-5-x--5-5-x--|--4-4-x--4-4-x--|--9-9-x--9-9-x--|--7-7-x--5-5-x--|
E --3-3-x--3-3-x--|--2-2-x--2-2-x--|--7-7-x--7-7-x--|--5-5-x---------|

e ----------------|----------------|----------------|----------------|
b --3-3-x--3-3-x--|--3-3-x--3-3-x--|--7-7-x--7-7-x--|--5-------------|
g --4-4-x--4-4-x--|--3-3-x--3-3-x--|--7-7-x--7-7-x--|--5-------------|
D --4-4-x--4-4-x--|--2-2-x--2-2-x--|--7-7-x--7-7-x--|--5-------------|
A --5-5-x--5-5-x--|--4-4-x--4-4-x--|--9-9-x--9-9-x--|--7-------------|
E --3-3-x--3-3-x--|--2-2-x--2-2-x--|--7-7-x--7-7-x--|--5-------------|






(next page...)
Verse 2 (* = tap)
e ---------------2--|---------------2--|---------------0--|---------------0--|
b -----3--*--3------|-----3--*--3------|-----3--*--3------|-----3--*--3------|
g -----4--*--4------|-----4--*--4------|-----3--*--3------|-----3--*--3------|
D -----4--*--4------|-----4--*--4------|-----2--*--2------|-----2--*--2------|
A ------------------|------------------|------------------|------------------|
E --3-----*--3------|--3-----*--3------|--2-----*--2------|--2-----*--2------|

e --------------9--|--------------9--|------------------|--------------------|
b -----7--*--7-----|-----7--*--7-----|--5---------------|--------------------|
g -----7--*--7-----|-----7--*--7-----|--5---------------|--------------------|
D -----7--*--7-----|-----7--*--7-----|--5---------------|--------------------|
A -----------------|-----------------|------------------|--------------------|
E --7-----*--7-----|--7-----*--7-----|--5---------------|--------------------|
e ---------------2--|---------------2--|---------------0--|---------------0--|
b -----3--*--3------|-----3--*--3------|-----3--*--3------|-----3--*--3------|
g -----4--*--4------|-----4--*--4------|-----3--*--3------|-----3--*--3------|
D -----4--*--4------|-----4--*--4------|-----2--*--2------|-----2--*--2------|
A ------------------|------------------|------------------|------------------|
E --3-----*--3------|--3-----*--3------|--2-----*--2------|--2-----*--2------|

e --------------9--|--------------9--|------------------|---------------5-*--|
b -----7--*--7-----|-----7--*--7-----|----5--*--5----*--|-----5--*--5-----*--|
g -----7--*--7-----|-----7--*--7-----|----5--*--5----*--|-----7--*--7-----*--|
D -----7--*--7-----|-----7--*--7-----|----5--*--5----*--|-----5--*--5-----*--|
A -----------------|-----------------|------------------|--5-----*--5-----*--|
E --7-----*--7-----|--7-----*--7-----|--5----*--5-(5)*--|--------------------|


Pre-chorus 2
e---------------------|--------------------|--------------------|--------------------|
b------5--*--5-----*--|-----3--*--3-----*--|-----3--*--3-----*--|-----3--*--3-----*--|
g------7--*--7-----*--|-----2--*--2-----*--|-----4--*--4-----*--|-----4--*--2-----*--|
D------5--*--5-----*--|-----0--*--0-----*--|-----4--*--4-----*--|-----4--*--0-----*--|
A---------------------|--------------------|--------------------|--------------------|
E --0-----*--0-(0)-*--|--2-----*--2-(2)-*--|--3-----*--3-(3)-*--|--3-----*--2-(2)-*--|
                                          (~ = sustain)(s = slide)
e---------------------|--------------------|---------------(s)--|-------------------|
b------5--*--5-----*--|-----3--*--3-----*--|--4~-----------(s)--|--10--10-10-10-10--|
g------7--*--7-----*--|-----2--*--2-----*--|--4~-----------(s)--|--9---9--9--9--9---|
D------5--*--5-----*--|-----0--*--0-----*--|--4~-----------(s)--|--8---8--8--8--8---|
A---------------------|--------------------|---------------(s)--|--9---9--9--9--9---|
E --0-----*--0-(0)-*--|--2-----*--2-(2)-*--|--3~-----------(s)--|-------------------|

Chorus 2 (strumming)
e ----------------|----------------|----------------|---------5-5-x--|
b --3-3-x--3-3-x--|--3-3-x--3-3-x--|--7-7-x--7-7-x--|--5-5-x--5-5-x--|
g --4-4-x--4-4-x--|--3-3-x--3-3-x--|--7-7-x--7-7-x--|--5-5-x--5-5-x--|
D --4-4-x--4-4-x--|--2-2-x--2-2-x--|--7-7-x--7-7-x--|--5-5-x--7-7-x--|
A --5-5-x--5-5-x--|--4-4-x--4-4-x--|--9-9-x--9-9-x--|--7-7-x--5-5-x--|
E --3-3-x--3-3-x--|--2-2-x--2-2-x--|--7-7-x--7-7-x--|--5-5-x---------|

e ----------------|----------------|----------------|----------------|
b --3-3-x--3-3-x--|--3-3-x--3-3-x--|--7-7-x--7-7-x--|--5-------------|
g --4-4-x--4-4-x--|--3-3-x--3-3-x--|--7-7-x--7-7-x--|--5-------------|
D --4-4-x--4-4-x--|--2-2-x--2-2-x--|--7-7-x--7-7-x--|--5-------------|
A --5-5-x--5-5-x--|--4-4-x--4-4-x--|--9-9-x--9-9-x--|--7-------------|
E --3-3-x--3-3-x--|--2-2-x--2-2-x--|--7-7-x--7-7-x--|--5-------------|
Bridge(RAP)
e ---------------2--|---------------2--|---------------0--|---------------0--|
b -----3--*--3------|-----3--*--3------|-----3--*--3------|-----3--*--3------|
g -----4--*--4------|-----4--*--4------|-----3--*--3------|-----3--*--3------|
D -----4--*--4------|-----4--*--4------|-----2--*--2------|-----2--*--2------|
A ------------------|------------------|------------------|------------------|
E --3-----*--3------|--3-----*--3------|--2-----*--2------|--2-----*--2------|

e --------------9--|--------------9--|------------------|---------------5-*--|
b -----7--*--7-----|-----7--*--7-----|----5--*--5----*--|-----5--*--5-----*--|
g -----7--*--7-----|-----7--*--7-----|----5--*--5----*--|-----7--*--7-----*--|
D -----7--*--7-----|-----7--*--7-----|----5--*--5----*--|-----5--*--5-----*--|
A -----------------|-----------------|------------------|--5-----*--5-----*--|
E --7-----*--7-----|--7-----*--7-----|--5----*--5-(5)*--|--------------------|

e ---------------2--|---------------2--|---------------0--|---------------0--|
b -----3--*--3------|-----3--*--3------|-----3--*--3------|-----3--*--3------|
g -----4--*--4------|-----4--*--4------|-----3--*--3------|-----3--*--3------|
D -----4--*--4------|-----4--*--4------|-----2--*--2------|-----2--*--2------|
A ------------------|------------------|------------------|------------------|
E --3-----*--3------|--3-----*--3------|--2-----*--2------|--2-----*--2------|

e --------------9--|--------------9--|------------------|--------------------|
b -----7--*--7-----|-----7--*--7-----|--3~--------------|--------------------|
g -----7--*--7-----|-----7--*--7-----|--4~--------------|--------------------|
D -----7--*--7-----|-----7--*--7-----|--4~--------------|--------------------|
A -----------------|-----------------|------------------|--------------------|
E --7-----*--7-----|--7-----*--7-----|--3~--------------|--------------------|

Last Chorus
Chorus 1 (strumming)
e ----------------|----------------|----------------|---------5-5-x--|
b --3-3-x--3-3-x--|--3-3-x--3-3-x--|--7-7-x--7-7-x--|--5-5-x--5-5-x--|
g --4-4-x--4-4-x--|--3-3-x--3-3-x--|--7-7-x--7-7-x--|--5-5-x--5-5-x--|
D --4-4-x--4-4-x--|--2-2-x--2-2-x--|--7-7-x--7-7-x--|--5-5-x--7-7-x--|
A --5-5-x--5-5-x--|--4-4-x--4-4-x--|--9-9-x--9-9-x--|--7-7-x--5-5-x--|
E --3-3-x--3-3-x--|--2-2-x--2-2-x--|--7-7-x--7-7-x--|--5-5-x---------|

e ----------------|----------------|----------------|---------5-5-x--|
b --3-3-x--3-3-x--|--3-3-x--3-3-x--|--7-7-x--7-7-x--|--5-5-x--5-5-x--|
g --4-4-x--4-4-x--|--3-3-x--3-3-x--|--7-7-x--7-7-x--|--5-5-x--5-5-x--|
D --4-4-x--4-4-x--|--2-2-x--2-2-x--|--7-7-x--7-7-x--|--5-5-x--7-7-x--|
A --5-5-x--5-5-x--|--4-4-x--4-4-x--|--9-9-x--9-9-x--|--7-7-x--5-5-x--|
E --3-3-x--3-3-x--|--2-2-x--2-2-x--|--7-7-x--7-7-x--|--5-5-x---------|

e ----------------|----------------|----------------|---------5-5-x--|
b --3-3-x--3-3-x--|--3-3-x--3-3-x--|--7-7-x--7-7-x--|--5-5-x--5-5-x--|
g --4-4-x--4-4-x--|--3-3-x--3-3-x--|--7-7-x--7-7-x--|--5-5-x--5-5-x--|
D --4-4-x--4-4-x--|--2-2-x--2-2-x--|--7-7-x--7-7-x--|--5-5-x--7-7-x--|
A --5-5-x--5-5-x--|--4-4-x--4-4-x--|--9-9-x--9-9-x--|--7-7-x--5-5-x--|
E --3-3-x--3-3-x--|--2-2-x--2-2-x--|--7-7-x--7-7-x--|--5-5-x---------|

e ----------------|----------------|----------------|----------------|
b --3-3-x--3-3-x--|--3-3-x--3-3-x--|--7-7-x--7-7-x--|--5-------------|
g --4-4-x--4-4-x--|--3-3-x--3-3-x--|--7-7-x--7-7-x--|--5-------------|
D --4-4-x--4-4-x--|--2-2-x--2-2-x--|--7-7-x--7-7-x--|--5-------------|
A --5-5-x--5-5-x--|--4-4-x--4-4-x--|--9-9-x--9-9-x--|--7-------------|
E --3-3-x--3-3-x--|--2-2-x--2-2-x--|--7-7-x--7-7-x--|--5-------------| 
Tap to rate this tab
 
# A B C D E F G H I J K L M N O P Q R S T U V W X Y Z