Song name
# A B C D E F G H I J K L M N O P Q R S T U V W X Y Z

G Love And Special Sauce - Milk And Cereal tab

Tabbed this off G's YouTube video while he's playing it with The Coffee Shop Kings on 
tour bus.
http://www.youtube.com/watch?v=2oC6uZeyfDE
Any mistakes, please tell me. Hope this is helpful...enjoy!

www.myspace.com/gracengonzalez

--------------------------------------------------------------------------
              MILK AND CEREAL - G. Love And Special Sauce
--------------------------------------------------------------------------
Tabbed by:Gracen Gonzalez
Email:gracen_g13@hotmail.com

Tuning:Standard

Intro
"Milk And Cereal..."
e|------------------------------------------------------------------|
B|--12--------------------------------------------------------------|
G|--11--------------------------------------------------------------|X4
D|--10--------------------------------------------------------------|
A|---x--------------------------------------------------------------|
E|--10--------------------------------------------------------------|

Verse
"Ahhhhhhhhhhhhhh...."
e|------------------------------------------------------------------|
B|--------9--7------------------------------------------------------|
G|--7--9--9--7------------------------------------------------------|
D|--7--9--7--5------------------------------------------------------|
A|--5--7--9--7------------------------------------------------------|
E|--7--9------------------------------------------------------------|


"Milk And Cereal..."
e|------------------------------------------------------------------|
B|--12--------------------------------------------------------------|
G|--11--------------------------------------------------------------|
D|--10--------------------------------------------------------------|
A|---x--------------------------------------------------------------|
E|--10--------------------------------------------------------------|

"Cheerio-eo-eo-eo-eo-eo..."
e|------------------------------------------------------------------|
B|--------9--7------------------------------------------------------|
G|--7--9--9--7------------------------------------------------------|
D|--7--9--7--5------------------------------------------------------|
A|--5--7--9--7------------------------------------------------------|
E|--7--9------------------------------------------------------------|

End on:
"...for Grandma (Grandma eat a bran muffin)"
e|------------------------------------------------------------------|
B|--9---------------------------------------------------------------|
G|--9---------------------------------------------------------------|
D|--7---------------------------------------------------------------|
A|--9---------------------------------------------------------------|
E|------------------------------------------------------------------|


Milk and cereal (milk and cereal)
Milk and cereal (cereal and milk)

Milk and cereal (cereal, cereal)
Milk and cereal (cereal and milk)
Cereal and milk (x12)
Milk and Cereal.............. Milk and Cereal
(Ahhhhhhhhhhhhhh.........)(x2)

I don’t want my Wheaties, give ‘em to the needy
Feeelin’ kinda greedy, I keep them for myself
I keep them for myself (x7)

No Grapenuts.........
For Grandma......... (Grandma eats a bran muffin)
Mom likes Special K.........
You can’t pinch an inch
You can’t pinch an inch (x5)
They’re magically delicious............
Keep your hands off my Lucky Charms
(pink hearts, yellow moons, blue diamonds (blue diamonds), green clovers)

A is for Apple, J is for Jack
You step on a crack, and you’ll break your Mama’s back
Rice Krispies, Franken Berries
(Oooh, Boo Berries)

Milk and cereal (milk and cereal)
Milk and cereal (cereal and milk)

Milk and cereal (milk and cereal)
Milk and cereal (cereal and milk)

Milk and cereal (milk and cereal)
Milk and cereal (cereal and milk)

Milk and cereal (milk and cereal)
Milk and cereal (cereal and milk)

Milk and stereo (stereo, stereo)
Milk and Cereal (cereal and milk) (x5)

Milk and Cheerio-eo-eo-eo……… (Cheerio-eo-eo-eo-eo-eo............(x4))

In the morning at the table (milk and cereal milk and cereal)
Snap, crackle, pop
Snap, crackle, pop (x6)
(Pop……….)

Cuckoo for Cocoa Puffs
Cuckoo for Cocoa Puffs (x7)
Trix are for kids
Trix are for kids (x10)

In the morning.......
At your table......
Milk and Cereal........ (x2)
Cereal And Milk......
Milk and Cereal.......
Cereal And Milk......

In the morning.......
At your table......
Milk and Cereal........ (x2)
Cereal And Milk......
Milk and Cereal.......
Cereal And Milk......

No Grapenuts..............
For Grandma (Grandma eat a bran muffin)
Tap to rate this tab
 
# A B C D E F G H I J K L M N O P Q R S T U V W X Y Z