Song name
# A B C D E F G H I J K L M N O P Q R S T U V W X Y Z

G Love And Special Sauce - Soft And Sweet tab

Highlighted       Show chord diagrams
----------------------------------------------------------------------------
		   Soft and Sweet - G Love & Special Sauce
----------------------------------------------------------------------------
Tabbed by: Dave-o
Email: daveo.vans@gmail.com

Tuning: Standard

This is basically the whole song with the exception of a few little fills and the solo. 
is an easy
and fun one to play. Listen to the song for timing. Enjoy! If someone figures out the 
hit me up.

   A    E    G    D
e|-0----0----3----2---------------------------------------------------------|
B|-2----0----3----3---------------------------------------------------------|
G|-2----1----0----2---------------------------------------------------------|
D|-2----2----0----0---------------------------------------------------------|
A|-0----2----2----0---------------------------------------------------------|
E|-0----0----3----0---------------------------------------------------------|
Tap to rate this tab
 
# A B C D E F G H I J K L M N O P Q R S T U V W X Y Z