Song name
# A B C D E F G H I J K L M N O P Q R S T U V W X Y Z

G Love And Special Sauce - Beautiful tab

I've seen a few tabs for beautiful, but none of them have tristan prettyman's finger 
thought I'd share it.

E||------------X-------|----------X----------------|
B||----------5-X-------|--------3-X----------------|
G||-------6-(6)X-6-----|---4----4-X--4-------------|
D||------------X-------|----------X----------------|
A||-------7----X-7-----|---5------X--5-------------|
E||----5-------X-------|------3---X----------------|

E||------------X-------|----------X----------------|
B||----------5-X-------|--------3-X----------------|
G||-------6-(6)X-6-----|---4----4-X--4-------------|
D||------------X-------|----------X----------------|
A||-------7----X-7-----|---5------X--5-------------|
E||----5-------X-------|----------X----------------|

pretty simple??
Tap to rate this tab
# A B C D E F G H I J K L M N O P Q R S T U V W X Y Z