Song name
# A B C D E F G H I J K L M N O P Q R S T U V W X Y Z

G Love And Special Sauce - Back Of The Bus tab

Back of the Bus by G. Love and Special Sauce

Tabbed by: O-52-A-50-R

No one’s tabbed this yet.

 

Intro Chords:

|--6-------6-6-----4-4-------|
|--6-10----6-8-----4-6---3~--|
|--7-8-----7-6-----5-4---1~--|
|--6-10----6-8-----4-6---3~--|
|--8-8-----8-6-----6-4---1~--|
|6-6-----6-6-----4-4---------|

Verse Chords:

|--8--8-----6-6----|
|--8--10----6-8----|
|--9--8-----7-6----|
|--8--10----6-8----|
|--10-8-----8-6----|
|8-8------6-6-6----|

Chorus Chords:

|--8--8-----6-6----|
|--8--10----6-8----|
|--9--8-----7-6----|
|--8--10----6-8----|
|--10-8-----8-6----|
|8-8------6-6-6----|

Same thing :/
Tap to rate this tab
# A B C D E F G H I J K L M N O P Q R S T U V W X Y Z