Guitaretab - guitar tabs
Song name
# A B C D E F G H I J K L M N O P Q R S T U V W X Y Z

G Love And Special Sauce - The Hustle tab

The Hustle by G Love and Special Sauce

Tabbed by: O-52-A-50-R

No one’s tabbed this yet.

Intro

|------------5/7-7/9\7--|
|----7/9\7---5/7-7/9\7--|
|7/8-6/8\6--------------|
|7/9--------------------|
|-----------------------|
|-----------------------|

Verse Chords - There’s a lot of minor improve 
with slides but these are a form of base chords
[ Tab from: http://www.guitaretab.com/g/g-love-and-special-sauce/181662.html ]
|--7---7 (or-10)---|
|--7---9-----------|
|--8---7-----------|
|--7---9-----------|
|--9---x-----------|
|--7---0-----------|

|--7--4--4--2---|
|--7--4--6--2---|
|--8--4--4--3---|
|--7--4--6--2---|
|--9--6--4--4---|
|--7--4-----2---|

Fill-in Chords


|--7 (or-10)--2--|
|--9----------5--|
|--7----------3--|
|--9----------2--|
|--x----------4--|
|--0----------2--|
Related for The Hustle tab