Song name
# A B C D E F G H I J K L M N O P Q R S T U V W X Y Z

G Love And Special Sauce - Honor And Harmony tab

Here's the solo
fyi only used my ears and imagination
(first submit!!!)


/ = slide
^ = bend up/down


----------------------------------------------------------------------------|
------------------------------------------------------13-13-15-13-----------|
--------10-12^14------14^12-10----10-10---12-10-12^14-------------14-12-----|
--/12--------------------------12-------------------------------------------|
----------------------------------------------------------------------------|
----------------------------------------------------------------------------|

----------------------------------------------------------------------------|
----------------------------------------------------------------------------|
--14^12-10----10-10---12-10-12^14-------------------------------------------|
-----------12---------------------------------------------------------------|
----------------------------------------------------------------------------|
----------------------------------------------------------------------------|
Tap to rate this tab
# A B C D E F G H I J K L M N O P Q R S T U V W X Y Z