Song name
# A B C D E F G H I J K L M N O P Q R S T U V W X Y Z

G Love And Special Sauce - Soft And Sweet tab

So i don't have time now, but this is all i've figured out. pretty easy. just listen to 
song for the rythm. Have at it!

Intro/fill 1

e-----------------------------------------------|
B--9h10-9h10-9----------------7h8-7h8-----------|
G--9~~~-9~~~-9----------------7~~-7~~-----------|
D--9h11-9h11-9-----9h11p9-----7h9-7h9----7h9p7--|
A--------------9s11------11-----------7s9-----9-|
E-----------------------------------------------|


The Chords the rest of the way are just :
   A   E    G   D
---0---0----3---2----|
---2---0----3---3----|
---2---1----0---2----|
---2---2----0---0----|
---0---2----2---0----|
-------0----3--(2)---|
Tap to rate this tab
# A B C D E F G H I J K L M N O P Q R S T U V W X Y Z