Song name
# A B C D E F G H I J K L M N O P Q R S T U V W X Y Z

G Love And Special Sauce - Dreamin tab

Tabbed by Michael Akland

Not quite sure how the actual into is, but this it what I have so far

"Everyone starts with the sweetest dreams"
e---7--3---7--5--3-----7--3---7--5--3---7--3---7--5--3|
b---7--3---7--5--3-----7--3---7--5--3---7--3---7--5--3|
g-----------------------------------------------------|
d-----------------------------------------------------|
a-----------------------------------------------------|
e-----------------------------------------------------|

"Maybe you dream that you just cant lose"
e---3-3---5-5/--7---x--x-x-x-x------------------------|
b---3-3---5-5/--7---7--5-5-5-5------------------------|
g---4-4---5-5/--7---7--5-5-5-5------------------------|
d---5-5---x-x/--x---7--5-5-5-5------------------------|
a---x-x---5-5/--7---x--0-0-0-0------------------------|
e---x-x-------------7--5-5-5-5------------------------|

     G     D9  E9   ?  ???????

This is my first tab, so if it aint perfect, its because I have no idea what I'm doing. 
Thanks for playing!
Tap to rate this tab
# A B C D E F G H I J K L M N O P Q R S T U V W X Y Z