Song name
# A B C D E F G H I J K L M N O P Q R S T U V W X Y Z

G Love And Special Sauce - Front Porch Lounger tab

Artist:G.Love and Special Sauce
Song  :Front Porch Lounger
Album :The Hustle
play along with the song if possible
based on the original tab

Verse/Kickin It

E---0-----------------------------0-------------------|
B---2-----------------------------2-------------------|
G---2---------2-------2h4h2-------2---------2-------2-|
D---2---2/4-------4---2----4h2----2---2/4-------4---2-|
A---0-----------------------------0-------------------|
E---0-----------------------------0-------------------|


Chorus
           "and I know that this song will never end"
   C  C     Gma7 Gma7            A        A
---0--0-----0----0---------------5--------5----------------------------------|
---1--1-----3----3---------------5--------5----------------------------------|
---0--0-----4----4---------------6--------6----------------2-------2h4h2-----|
---2--2-----4----4---------------7--------7----------2/4-------4---2-----4h2-|
---3--3-----x----x---------------7--------7----------------------------------|
---0--0-----3----3---------------5--------5----------------------------------|
Tap to rate this tab
# A B C D E F G H I J K L M N O P Q R S T U V W X Y Z