Song name
# A B C D E F G H I J K L M N O P Q R S T U V W X Y Z

G Love And Special Sauce - Cold Beverage Real Way tab

November, 2005
Of all the g.l.a.s.s. songs I've figured out, I suppose this one would do the most good
to the people for my first tab (the only other tab out there sucks ass). Enjoy and spread
this to as many tab sites as u can

/=Slide Up

\=Slide Down

Main Riff

    G7          D9 F      G7          F

e------------------5-----------------/5--5---|
b-------6---6---5--6----------6---4\-/6--6---|
g-----4-----4---5-----------4-----6\---------|
d---5---------------------5------------------|
a--------------------------------------------|
E--------------------------------------------|


Chorus

-just listen to the timing

    G7       D9  F                 G7

e------------5---5-5---:-------:------|
b---6--------5---6-6---:-------:---6--|
g---4--------5---5-5---:-X-3---:---4--|
d---5--------4---------:-------:---5--|
a------------5---------:-------:------|
E----------------------:-------:------|


Fill #1

e--6-----/12-12-12-10---|
b--------/12-12-12-12---|
g-----------------------|
d-----------------------|
a-----------------------|
E-----------------------|

Then...
@ 0:36
e----------------------:------:---------------------1-|
b------6--6-6-6-6-6-6--:------:------6------3-1-3-1-0-|
g----4----4-4-4-4-4-4--:-X-3--:----4-----/3---------0-|
d--5-------------------:------:--5--------------------|
a----------------------:------:-----------------------|
E----------------------:------:-----------------------|


@ 0:53

e----------------|
b-----3-1-3/6----|
g--/3---------4--|
d----------------|
a----------------|
E----------------|

@ 1:09
   cold, cold, cold, cold
   G7    A7    B7    C7
e--------3-----5-----6----|
b--6-----2-----4-----5----|
g--4-----2-----4-----5----|
d--5----------------------|
a-------------------------|
E-------------------------|


Bridge @ 1:22
                  G9
e--/10-10-10--:---10-----------|
b--/10-10-10--:---10---STRUM---|
g--/10-10-10--:---10---FAST----|
d-------------:----9-----------|
a-------------:---10---up-down-|
E-------------:----------------|


Ending
  G7   A7   B7   C7
e------3----5----6-----/10--|
b-6----2----4----5-----/10--|
g-4----2----4----5-----/10--|  STRUM OUT
d-5--------------------/-9--|
a----------------------/10--|
E---------------------------|

That's it.  Not too hard, but fun to play ~DL
Tap to rate this tab
# A B C D E F G H I J K L M N O P Q R S T U V W X Y Z