Guitaretab - guitar tabs
Song name
# A B C D E F G H I J K L M N O P Q R S T U V W X Y Z

G Love And Special Sauce - Hopeless Case tab

Song: Hopeless case
Artist:  G. Love & Special Sauce
Album: Elecric mile
Tuning:  Standard [EADGBE]
Tapped: Gunnar S.Ragnars

Intro:
E-----------------------------------------------------------------------|
B---------------------7----7--------------------------------------------|
G---------------------7h9--7h9---9p7------------------------------------|
D-------------5—7/9-------------------9\7--5---5--------5--7p5----------|
A---------5/7--------------------------------7----5h7-----------7-------|
E------0----------------------------------------------------------------|

E-----------------------------------------------------------------------|
B-----------------------------------------------------------------------|
G-----------------------------------------------------------------------|
D--------------7p5---5----5---------------------------------------------| *2
A---------5h7------7----7----------5h7----7p5---5---5h7-----------------|
E------0----------------------0--0------------7---7---------------------|

Vers1:
E-----------------------------------------------------------------------|
B-----------------------------------------------------------------------|
G-----------------------------------------------------------------------|
D--------------6h7p6-----7p6---6h7p6------------------------------------| *2
A--------------7---------7---7-------7----------------------------------|
E-----------0-----------------------------------------------------------|

E-----------------------------------------------------------------------|
B---------------7/9-------7/9--------7/9-------7/9----------------------|
G---------------7/9-------7/9--------7/9-------7/9----------------------|
D---------------7/9-------7/9--------7/9-------7/9----------------------|
A-----------------------------------------------------------------------|
E-----------------------------------------------------------------------|

E-----------------------------------------------------------------------|
B-----------------------------------------------------------------------|
G-----------------------------------------------------------------------|
D--------------6h7p6-----7p6---6h7p6------------------------------------| *2
A--------------7---------7---7-------7----------------------------------|
E-----------0-----------------------------------------------------------|

E-----------0----------5---------7--------------------------------------|
B-----------0----------5---------7--------------------------------------|
G-----------7----------5---------7--------------------------------------|
D-----------5----------5---------7--------------------------------------|
A-----------7----------7---------9--------------------------------------|
E-----------0----------5---------7--------------------------------------|
[ Tab from: http://www.guitaretab.com/g/g-love-and-special-sauce/66930.html ]
E-----------------------------------------------------------------------|
B-----------------------------------------------------------------------|
G-----------------------------------------------------------------------|
D--------------7p5---5----5---------------------------------------------| *2
A---------5h7------7----7----------5h7----7p5---5---5-------------------|
E------0----------------------0--0------------7---7---------------------|

“No man is an island to stand alone” part
E-----------5-----------0-----------------------------------------------|
B-----------5-----------3/5---3--0--------------------------------------|
G-----------5----------------------2--0---------------------------------|
D-----------5---------------------------2--0----------------------------|
A-----------7--------------------------------2--0-----------------------|
E-----------5-------------------------------------3b---0----------------|

E-----------------------------------------------------------------------|
B-----------------------------------------------------------------------|
G-----------------------------------------------------------------------|
D--------------6h7p6-----7p6---6h7p6------------------------------------| *4
A--------------7---------7---7-------7----------------------------------|
E-----------0-----------------------------------------------------------|

E-----------0----------5---------7--------------------------------------|
B-----------0----------5---------7--------------------------------------|
G-----------7----------5---------7--------------------------------------|
D-----------5----------5---------7--------------------------------------|
A-----------7----------7---------9--------------------------------------|
E-----------0----------5---------7--------------------------------------|

E----------------------------------0------5-----7-----------------------|
B----------------------------------0------5-----7-----------------------|
G----------------------------------7------5-----7-----------------------|
D--------------7p5---5----5--------5------5-----7-----------------------| *1
A---------5h7------7----7----------7------7-----9-----------------------|
E------0---------------------------0------5-----7-----------------------|

E-----------------------------------------------------------------------|
B-----------------------------------------------------------------------|
G-----------------------------------------------------------------------|
D--------------7p5---5----5---------------------------------------------| *2
A---------5h7------7----7----------5h7----7p5---5---5h7-----------------|
E------0----------------------0--0------------7---7---------------------|

End:
E-----------0----------5---------7--------------------------------------|
B-----------0----------5---------7--------------------------------------|
G-----------7----------5---------7--------------------------------------|
D-----------5----------5---------7--------------------------------------|
A-----------7----------7---------9--------------------------------------|
E-----------0----------5---------7--------------------------------------|

That’s it
I hope this is not very confusing.
Enjoy
Related for Hopeless Case tab
Advertisement will be closed in 10 seconds