Song name
# A B C D E F G H I J K L M N O P Q R S T U V W X Y Z

G Love And Special Sauce - Recipe tab

-------------------------------------------------------------------------------
		     RECIPE – G. Love and Special Sauce
-------------------------------------------------------------------------------
Tabbed by: Pat Wiener
Email: silentsteeple15@yahoo.com

Tuning: standard

INTRO  -- lots of reverb

e|------------------------|
B|------------------------|
G|---------6--------------|   3 times full, on 4th only play first part
D|------8------------4----|
A|---6------------6-------|
E|-------------4----------|

 chords, he does it reggae live, but album he just has a funky strumming with some piano

e|---6-------4------|
B|---8-------4------|
G|---6-------5------|
D|---8-------4------|
A|---6-------6------|
E|-----------4------|

I think that’s pretty much it throughout the whole song, just listen to it and you should get it. 

===============================================================================

Tap to rate this tab
 
# A B C D E F G H I J K L M N O P Q R S T U V W X Y Z