Song name
# A B C D E F G H I J K L M N O P Q R S T U V W X Y Z

G Love And Special Sauce - Still Hangin Around tab

-----------------------------------------------------------------------------
           Still Hanging' Around - G. Love & Special Sauce
-----------------------------------------------------------------------------

Email: bbeaudoi@student.umass.edu

This isn't how Garret plays it but the chords are still
the correct, they are just arguably easier to play this way.
The fills are my own and are awful but it's a start.


Performance notes: I think it sounds vibrant to slide the F#dim 
chord up in 3 fret increments but do what you want.
One more thing, because of the capo you can quickly ring out 
the open strings when switching chords to give it a
more dirty sound.

Tuning: Capo 6th fret

Verse:

   C         E7        F        F#dim(can use any combination of these)
e|----0----|----0----|----1----|-2-2-5-5-8-8-|
B|----1----|----3----|----1----|-1-1-4-4-7-7-|
G|----0----|----1----|----2----|-2-2-5-5-8-8-|
D|----2----|----0----|----3----|-1-1-4-4-7-7-|
A|----3----|----2----|----3----|-------------|
E|---------|----0----|----1----|-------------|

  C   G7    C   G7    C   G7     C(Fill#1)
e|--0---1--|--0---1--|--0---1--|--0------|--0------|
B|--1---0--|--1---0--|--1---0--|--1------|--1------|
G|--0---0--|--0---0--|--0---0--|--0------|--0------|
D|--2---0--|--2---0--|--2---0--|--2------|--2------|
A|--3---2--|--3---2--|--3---2--|--3------|--3------|
E|------3--|------3--|------3--|---------|---------|

Fill #1

e|--0----------------------------0---|
B|--1----4-3-1-------------------1---|
G|--0--0-------3-2-0-------------0---|
D|--2----------------3-2---3-2---2---|
A|--3--------------------3-----3-3---|
E|-----------------------------------|

Bridge:
   F         F        C C7 (Fill #2)
e|----1----|---------|----0----|----0----|
B|----1----|---------|----1----|----1----|
G|----2----|---o/o---|----0----|----3----|
D|----3----|---------|----2----|----2----|
A|----3----|---------|----3----|----3----|
E|----1----|---------|---------|---------|
  F          F        G7         G7
e|----1----|---------|----1----|---------|
B|----1----|---------|----0----|---------|
G|----2----|---o/o---|----0----|---o/o---|
D|----3----|---------|----0----|---------|
A|----3----|---------|----2----|---------|
E|----1----|---------|----3----|---------|

Fill #2
       /-------------------play as triplets
e|--0------------------------------------|
B|--1------------------------------------|
G|--0--0-3-0-0-3-0--0-3-0-0-3-0-0-0-0-0--|
D|--2--2-2-2-2-2-2--2-2-2-2-2-2-2-3-2-0--|
A|--3--3-3-3-3-3-3--3-3-3-2-3-3-3-3-3-0--|
E|---------------------------------------|
Tap to rate this tab
 
# A B C D E F G H I J K L M N O P Q R S T U V W X Y Z