Song name
# A B C D E F G H I J K L M N O P Q R S T U V W X Y Z

G-spot Boyz - Do Da Stanky Legg tab

Help us improve GuitareTab! Take a short survey!
Artist: Them G-Spot Boyz/G-Spot Boyz/GS Boyz
Song: Do Da Stanky Legg/Stanky Legg

Intro

e------------------------------------------|
B-----8-8-8----9-------8-8-8----9----------|
G---------------------------------10-8-7-8-|  (repeat)
D--10-------10------10-------10------------|
A------------------------------------------|
E------------------------------------------|

Verse (Chords)

e--8----8---|
B--8----9---|
G--8----10--|  (repeat)
D--10---10--|
A--10---8---|
E--8--------|

I saw this on youtube about a month ago and got hooked.
had to try and figure it out...this is my first tab, sad i know.
took like 5 min, not perfect.
its pretty much the same riff and chords played throughout the whole song.  make any 
needed.

dan
Related for Do Da Stanky Legg tab