Song name
# A B C D E F G H I J K L M N O P Q R S T U V W X Y Z

Gaash Ninari - On And On chords

Highlighted       Show chord diagrams
Tuning: Standard

[intro]
Am | Dm | F | C
Am | Dm | F 


Am                 Dm              F
    When everybody here is out of sight
                 C
    And I have no one that can be on my side
Am                 Dm              F
    The blood just wants to rush out,
            F
    And I'm going crazy…


Am                 Dm              F
    When I'm supposed not to run and hide
                 C
    And almost everything is out of my mind,
Am                 Dm              F
    The fact that now he's gone, 
            F
    Is making me crazy…
---------------------------------------------------------------

Dm                 C                    G
    Everybody is gone, but I'll carry on,
                      G
    I will face the truth until it's done.
Dm                 C                    G
    It's my only choice, to stay or to run.
Dm                 C                    G
    When will you realize, that I have no one?
                               G
    But I will till keep on standing, even if I fall,
Dm                 C                    G
    And I  will keep going on and on...
----------------------------------------------------------------

Am                 Dm              F
    Well now that everything is getting fine,
                   C                        Am
    And I have things that I can put on my mind,
Am                 Dm              F
    I'm starting to carry on,
              F
    And nothing is hazy…


Am                 C    G             D     
    And all that I want, Is another moment with you,
Am                 C         G
    And you're forever in my heart…
Am                 C     G             D             Am  C  G
    And all that I want, Is to look into your eyes again…

[Solo chords: Am | C | G | D ]
[             Am | C | G     ]

E||--------------------------------------------------------------------|
B||--------------------------------------------------------------------|
G||----------5--7--9---12--12--9--12--12b14--12---11/9-9--9/7--7-7-9---|
D||-5--7--9------------------------------------------------------------|
A||--------------------------------------------------------------------|
E||--------------------------------------------------------------------|


E||--------------------------------------------------------------------|
B||--------------------------------------------------------------------|
G||----------5--7--9---9/12--11--12~---12b14b12------------------------|
D||-5--7--9------------------------------------------------------------|
A||--------------------------------------------------------------------|
E||--------------------------------------------------------------------|


E||--------------------------------------------------------------------|
B||--------------------------------------------------------------------|
G||-------5-7-9--9--7-9-7-9-7-5--7--5-7-5------------------------------|
D||-5-7-9---------------------------------9--9--7-9-7-5-5--7--7b8--5-7-|
A||--------------------------------------------------------------------|
E||--------------------------------------------------------------------|


E||--------------------------|
B||--------------------------|
G||---5-7-9--7~--------------|
D||-9------------------------|
A||--------------------------|
E||--------------------------|


Dm                 C                    G
    Everybody is gone, but I'll carry on,
                      G
    I will face the truth until it's done.
Dm                 C                    G
    It's my only choice, to stay or to run.
Dm                 C                    G
    When will you realize, that I have no one?
                               G
    But I will till keep on standing, even if I fall,
Dm                 C                    G
    And I  will keep going on and on...


Am                 C    G             D     
    And all that I want, Is another moment with you,
Am                 C         G
    And you're forever in my heart…
Am                 C     G             D             Am  C  G (hold)
    And all that I want, Is to look into your eyes again…

Tap to rate this tab
# A B C D E F G H I J K L M N O P Q R S T U V W X Y Z